>
 >
Beyond The Pale

Beyond The Pale Bass Tabs

Pain Of Salvation - Beyond The Pale chords, tabs, tablatures, lyrics

Guitar lessons | Add/correct | Request | Top 50 tabs Artists:  A B C D E F G H I J K L M N O P Q R S T U V W X Y Z 0-9

Beyond The Pale Bass Tabs – Pain Of Salvation

CD, Sheet music, Poster

Do you like Beyond The Pale? Share with your friends now
Bass TabsTabs
#------------------------------------------------------------------------------##

                           BEYOND THE PALE (Bassline)
                        As recorded by Pain Of Salvation
                        (From the 2002 Album REMEDY LANE)

Words and Music by Daniel Gildenl÷w

Gtr I (B E A D G) - 'Elec. Bass'

 Intro & 1st Verse
  Slowly/Moderately Q=74
 4/4
  Gtr I
  Wx12          S S S S e E E E +E   S S   S S e E E +Q    S S S S
|-------------|--------------------------|-------------------------|
|-------------|--------------------------|-------------------------|
|-------------|--------------------------|-------------------------|
|-------------|--------------------------|-------------------------|
|-------------|-1-3-3-1-3-----6-(6)\-1-3-|-3-1-3---8-(8)\--1-3-3-1-|


  e E E E +E   S S S S e   E E +Q    S S S S e E   E E +E   S S S S e E E
|------------------------|-----------------------|-------------------------|
|------------------------|-----------------------|-------------------------|
|------------------------|-----------------------|-------------------------|
|------------------------|-----------------------|-------------------------|
|-3-----6-(6)\-1-3-3-1-3-|---8-(8)\--1-3-3-1-3---|---6-(6)\-1-3-3-1-3---8--|


  +Q    S S S S e E E E   +E   S S S S e E E +Q      S S S S e E E E +E   E
|-----------------------|--------------------------|-------------------------||
|-----------------------|--------------------------|-------------------------||
|-----------------------|--------------------------|-------------------------||
|-----------------------|--------------------------|-------------------------||
|-(8)\--1-3-3-1-3-----6-|-(6)\-1-3-3-1-3---8-(8)\--|-1-3-3-1-3-----6-(6)\----||


 Interlude
  S S S S e E E E +E   S S   S S e E E +Q    S S S S
|--------------------------|-------------------------|
|--------------------------|-------------------------|
|--------------------------|-------------------------|
|--------------------------|-------------------------|
|-1-3-3-1-3-----6-(6)\-1-3-|-3-1-3---8-(8)\--1-3-3-1-|


  e E E E +E   S S S S e   E E +Q    S S S S e E
|------------------------|-------------------------|
|------------------------|-------------------------|
|------------------------|-------------------------|
|------------------------|-------------------------|
|-3-----6-(6)\-1-3-3-1-3-|---8-(8)\--1-3-3-1-3-----|


  E E +E   S S S S e E E   +Q    S S S S e E E E
|------------------------|-----------------------|
|------------------------|-----------------------|
|------------------------|-----------------------|
|------------------------|-----------------------|
|---6-(6)\-1-3-3-1-3---8-|-(8)\--1-3-3-1-3-----6-|


  +E   S S S S e E E +Q      S S S S e E E E +E   S S
|--------------------------|--------------------------||
|--------------------------|--------------------------||
|--------------------------|--------------------------||
|--------------------------|--------------------------||
|-(6)\-1-3-3-1-3---8-(8)\--|-1-3-3-1-3-----6-(6)\-1-3-||


 2nd Verse
  S S e E E +Q    S S S S   e E E E +E   S S S S e
|-------------------------|------------------------|
|-------------------------|------------------------|
|-------------------------|------------------------|
|-------------------------|------------------------|
|-3-1-3---8-(8)\--1-3-3-1-|-3-----6-(6)\-1-3-3-1-3-|


  E E +Q    S S S S e E   E E +E   S S S S e E E
|-----------------------|------------------------|
|-----------------------|------------------------|
|-----------------------|------------------------|
|-----------------------|------------------------|
|---8-(8)\--1-3-3-1-3---|---6-(6)\-1-3-3-1-3---8-|


  +Q    S S S S e E E E   +E   S S S S e E E +Q
|-----------------------|--------------------------|
|-----------------------|--------------------------|
|-----------------------|--------------------------|
|-----------------------|--------------------------|
|-(8)\--1-3-3-1-3-----6-|-(6)\-1-3-3-1-3---8-(8)\--|


  S S S S e E E E +E   S S   S S e E E +Q    S S S S
|--------------------------|---------------------------|
|--------------------------|---------------------------|
|--------------------------|---------------------------|
|--------------------------|---------------------------|
|-1-3-3-1-3-----6-(6)\-1-3-|-3-1-3---8-(8)\--1-3-3-1---|


  e E E E +E   S S S S e   E E +Q    S S S S e E
|------------------------|-----------------------|
|------------------------|-----------------------|
|------------------------|-----------------------|
|------------------------|-----------------------|
|-3-----6-(6)\-1-3-3-1-3-|---8-(8)\--1-3-3-1-3---|


  E E +E   S S S S e E E   +Q    S S S S e E E E
|------------------------|------------------------|
|------------------------|------------------------|
|------------------------|------------------------|
|------------------------|------------------------|
|---6-(6)\-1-3-3-1-3---8-|-(8)\--1-3-3-1-3-----6--|


  +E   S S S S e E E +Q      S S S S e E E E +E   S S
|--------------------------|--------------------------|
|--------------------------|--------------------------|
|--------------------------|--------------------------|
|--------------------------|--------------------------|
|-(6)\-1-3-3-1-3---8-(8)\--|-1-3-3-1-3-----6-(6)\-1-3-|


  S S e E E +Q    S S S S   e E E E +E   S S S S e
|-------------------------|--------------------------||
|-------------------------|--------------------------||
|-------------------------|--------------------------||
|-------------------------|--------------------------||
|-3-1-3---8-(8)\--1-3-3-1-|-3-----6-(6)\-1-3-3-1-3---||


   Pre-Chorus
    $
    $$
   5/4
    S E. +E  S S +E  e S S E S S E
||---------------------------------|
||o--------------------------------|
||---------------------------------|
||o--------------------------------|
||--3-3--(3)-3-3-(3)-3-3-3---3-3---|


                                  To Coda
 13/8                                         1/4
  S E. +E  S S +E  e S S E S S E S S E S S     W
|-------------------------------------------||-----||
|------------------------------------------o||-----||
|-------------------------------------------||-----||
|------------------------------------------o||-----||
|-3-3--(3)-3-3-(3)-3-3-3---3-3---3-3---x-x--||-----||


   1st & 2nd Chorus
                                                            To Dbl. Coda
   6/8
    S E E S S E E S   S E E S S E E S   S E E S S E E S   S E E S S E E S
||------------------|-----------------|-----------------|-------------------||
||o-----------------|-----------------|-----------------|------------------o||
||------------------|-----------------|-----------------|-------------------||
||o-3-3-3-3-3-3-3-3-|-----------------|-----------------|------------------o||
||------------------|-3-3-3-3-3-3-3-3-|-4-4-4-4-4-4-4-4-|-3-3-3-3-3-3-3-3---||


 1st Bridge
   H.         H.         Q.    +E   E  S  S
|----------|----------|------------10-------|
|-13-------|-12-------|-13----(13)----------|
|----------|----------|---------------13-12-|
|----------|----------|---------------------|
|----------|----------|---------------------|


   Q.    +E   S  S  E      Q.    +Q    E
|------------12-12-12\-|-----------------|
|----------------------|-/13----(13)--13-|
|-10----(10)-----------|-----------------|
|----------------------|-----------------|
|----------------------|-----------------|


   Q.    +E   E  E    Q.    +Q    E
|------------------|-----------------|
|-12----(12)----12-|-10----(10)--10\-|
|------------13----|-----------------|
|------------------|-----------------|
|------------------|-----------------|


                                      D.S. al Coda
  Q.   +Q     E    E. E S S E S S S   E. E S S E. E
|----------------|------------------|---------------||
|-8----(8)--/10\-|-7--7-7-7-7-7-7---|---------------||
|----------------|----------------7-|-0--0-0-0-0--0-||
|----------------|------------------|---------------||
|----------------|------------------|---------------||


   Interlude & 3rd Verse
    &
   5/4                       6/4
     Q.    E  +Q   Q  +E  E    Q.    E  +Q   Q   E  +E   E  E  4x
||--------------------------|----------------------------------||
||o-12----10-(10)--9--(9)-8s|=12----10-(10)--9-------------10-o||
||--------------------------|-------------------10-(10)\-8-----||
||o-------------------------|---------------------------------o||
||--------------------------|----------------------------------||


   5/4                    6/4
    Q.   E +Q   Q  +E  E   Q.   E +Q   Q  E +E   E E
||-----------------------|----------------------------||
||o----------------------|---------------------------o||
||--5----3-(3)--2--(2)-1s|=5----3-(3)--2-----------3--||
||o----------------------|----------------3-(3)\-1---o||
||-----------------------|----------------------------||


  Triplet Feel Q.=74
 18/16                         12/16
  Q  S S S S Q  +S  S S S S S   +Q   S S Q.
|-----------------------------|---------------||
|-----------------------------|---------------||
|-----------------------------|---------------||
|-----------------------------|---------------||
|-3--3-3---3-3--(3)-3-3---3-3-|-(3)--3-3------||


   Interlude & Breakdown
   18/16                       12/16          18/16
    Q  S S S S S Q  S S S S S   Q  S S E. E.   Q  S S S S S Q  S S S S S
||----------------------------|--------------|---------------------------|
||o---------------------------|--------------|---------------------------|
||--5------------3------------|-2------1-----|-5------------3------------|
||o---------------------------|--------------|---------------------------|
||-----3-3---3-3----3-3---3-3-|----3-3-------|----3-3---3-3----3-3---3-3-|


  Q  S S Q  S S E. E.  4x Q  S S S S S Q  S S S S S   Q  S S Q  S S E. E.
|----------------------||---------------------------|---------------------|
|---------------------o||---------------------------|---------------------|
|-2------2------1------||-5------------3------------|-2------2------1-----|
|---------------------o||---------------------------|---------------------|
|----3-3----3-3--------||----3-3---3-3----3-3---3-3-|----3-3----3-3-------|


                             12/16
  Q  S S S S S Q  S S S S S   Q  S S Q  S S   E. E. Q.
|---------------------------|---------------|------------||
|---------------------------|---------------|------------||
|-5------------3------------|-2------2------|-1----------||
|---------------------------|---------------|------------||
|----3-3---3-3----3-3---3-3-|----3-3----3-3-|------------||


   1st Guitar Solo
    A Tempo Q=74
   6/8
    S E E S S E E S   S E E S S E E S   S E E S S E E S   S E E S S E E S
||------------------|-----------------|-----------------|-------------------||
||o-----------------|-----------------|-----------------|------------------o||
||------------------|-----------------|-----------------|-------------------||
||o-3-3-3-3-3-3-3-3-|-----------------|-----------------|------------------o||
||------------------|-3-3-3-3-3-3-3-3-|-4-4-4-4-4-4-4-4-|-3-3-3-3-3-3-3-3---||


 2nd Guitar Solo
   Q.    +Q    E    H.         Q.    +E   e  e
|----------------|----------|------------------|
|-13----(13)--13-|-12-------|-13----(13)-15----|
|----------------|----------|---------------13-|
|----------------|----------|------------------|
|----------------|----------|------------------|


   Q   E   Q   +S   S     Q.    +Q    S  S
|-----15\-12--(12)----|--------------------|
|------------------12-|-/13----(13)-----13-|
|-10------------------|--------------13----|
|---------------------|--------------------|
|---------------------|--------------------|


   Q.    +Q    E    Q.    +E   E S  S
|----------------|--------------------|
|-12----(12)--12-|-10----(10)-10-8-10-|
|----------------|--------------------|
|----------------|--------------------|
|----------------|--------------------|


  Q.   +Q    S S   E. E S S S S S S S   E. E S E E E
|----------------|--------------------|----------------||
|-8----(8)--10-8-|-7--7---7-7-7-7-7---|----------------||
|----------------|------0-----------7-|-0--0-0-0-0-0---||
|----------------|--------------------|----------------||
|----------------|--------------------|----------------||


 Interlude
 4/4
  W          +W           Wx2
|----------|------------|--------||
|----------|------------|--------||
|----------|------------|--------||
|----------|------------|--------||
|-3--------|-(3)--------|--------||


 4th Verse
  S S S S e E E E +E   S S   S S e E E +Q    S S S S
|--------------------------|-------------------------|
|--------------------------|-------------------------|
|--------------------------|-------------------------|
|--------------------------|-------------------------|
|-1-3-3-1-3-----6-(6)\-1-3-|-3-1-3---8-(8)\--1-3-3-1-|


  e E E E +E   S S S S e   E E +Q    S S S S e E
|------------------------|-------------------------|
|------------------------|-------------------------|
|------------------------|-------------------------|
|------------------------|-------------------------|
|-3-----6-(6)\-1-3-3-1-3-|---8-(8)\--1-3-3-1-3-----|


  E E +E   S S S S e E E   +Q    S S S S e E E E
|------------------------|-----------------------|
|------------------------|-----------------------|
|------------------------|-----------------------|
|------------------------|-----------------------|
|---6-(6)\-1-3-3-1-3---8-|-(8)\--1-3-3-1-3-----6-|


  +E   S S S S e E E +Q      S S S S e E E E +E   S S
|--------------------------|--------------------------|
|--------------------------|--------------------------|
|--------------------------|--------------------------|
|--------------------------|--------------------------|
|-(6)\-1-3-3-1-3---8-(8)\--|-1-3-3-1-3-----6-(6)\-1-3-|


  S S e E E +Q    S S S S   e E E E +E   S S S S e
|-------------------------|------------------------|
|-------------------------|------------------------|
|-------------------------|------------------------|
|-------------------------|------------------------|
|-3-1-3---8-(8)\--1-3-3-1-|-3-----6-(6)\-1-3-3-1-3-|


  E E +Q    S S S S e E   E E +E   S S S S e E E
|-----------------------|------------------------|
|-----------------------|------------------------|
|-----------------------|------------------------|
|-----------------------|------------------------|
|---8-(8)\--1-3-3-1-3---|---6-(6)\-1-3-3-1-3---8-|


  +Q    S S S S e E E E   +E   S S S S e E E +Q
|-----------------------|--------------------------|
|-----------------------|--------------------------|
|-----------------------|--------------------------|
|-----------------------|--------------------------|
|-(8)\--1-3-3-1-3-----6-|-(6)\-1-3-3-1-3---8-(8)\--|


                                D.S.S. al Dbl. Coda
  S S S S e E E E +E   S S   S S e E E +Q    S S S S
|--------------------------|---------------------------||
|--------------------------|---------------------------||
|--------------------------|---------------------------||
|--------------------------|---------------------------||
|-1-3-3-1-3-----6-(6)\-1-3-|-3-1-3---8-(8)\--1-3-3-1---||


 2nd Bridge
  &&
 6/8
    Q.    +Q    E     H.
|------------------|----------|
|-/13----(13)--13\-|-12-------|
|------------------|----------|
|------------------|----------|
|------------------|----------|


   S  S  +Q    +E   E  S  S    E.   E.  E.  S  S  S
|---------------------------|--------------19----20-|
|-12s13-(13)--(13)-12-------|----------17-----17----|
|---------------------13-12-|-10--/17---------------|
|---------------------------|-----------------------|
|---------------------------|-----------------------|


    Q.    +E.  S  S  S    Q.    +E   S  S  S  S
|----------------------|------------------------|
|-\13----(13)-------13-|-12----(12)-15-13-12-13-|
|-------------12-13----|------------------------|
|----------------------|------------------------|
|----------------------|------------------------|


    Q.    +Q    E    Q.   +Q   S  S
|------------------|----------------|
|-\10----(10)--10\-|-8----(8)--8-10-|
|------------------|----------------|
|------------------|----------------|
|------------------|----------------|


    Q.    +Q    S  S    a  Q.    +Q   S  S    Q.    +E   e  e
|--------------------|---------------------|---------------15-|
|-/13----(13)--13-12-|-10s12----(12)----12-|-13----(13)-13----|
|--------------------|---------------------|------------------|
|--------------------|---------------------|------------------|
|--------------------|---------------------|------------------|


   E  S  E  S  Q.      a  Q.    +E   e  S  S
|-14-15-12----------|-------------------------|
|----------15-12----|-12s13----(13)-13----13--|
|-------------------|------------------13-----|
|-------------------|-------------------------|
|-------------------|-------------------------|


   Q.    +Q    S  S    Q.    +Q    S  S
|-------------------|-------------------|
|-12----(12)-----12-|-10----(10)-----10-|
|-------------13----|-------------10----|
|-------------------|-------------------|
|-------------------|-------------------|


  Q.   +Q   S S   E. E S E E S S   E. E S E E E
|---------------|----------------|--------------||
|-8----(8)----8-|-7--7---7-7-7---|--------------||
|-----------8---|------0-------7-|-0--0-0-0-0-0-||
|---------------|----------------|--------------||
|---------------|----------------|--------------||


 Outro
 4/4
  W          +W           +W           +W           Wx12
|----------|------------|------------|------------|---------*|
|----------|------------|------------|------------|---------*|
|----------|------------|------------|------------|---------*|
|----------|------------|------------|------------|---------*|
|-3--------|-(3)--------|-(3)--------|-(3)--------|---------*|


Duration Legend
---------------
W - whole; H - half; Q - quarter; E - 8th; S - 16th; T - 32nd; X - 64th; a - acciaccatura
+ - note tied to previous; . - note dotted; .. - note double dotted
Uncapitalized letters represent notes that are staccato (1/2 duration)
Irregular groupings are notated above the duration line
Duration letters will always appear directly above the note/fret number it represents the
duration for.  Duration letters with no fret number below them represent rests.  Multi-
bar rests are notated in the form Wxn, where n is the number of bars to rest for.  Low
melody durations appear below the staff

Tablature Legend
----------------
 h   - hammer-on
 p   - pull-off
 b   - bend
 pb  - pre-bend
 r   - bend release (if no number after the r, then release immediately)
 /\  - slide into or out of (from/to "nowhere")
 s   - legato slide
 S   - shift slide
  - natural harmonic
[n]  - artificial harmonic
n(n) - tapped harmonic
 ~   - vibrato
 tr  - trill
 T   - tap
 TP  - trem. picking
 PM  - palm muting
\n/  - tremolo bar dip; n = amount to dip
 \n  - tremolo bar down
 n/  - tremolo bar up
/n\  - tremolo bar inverted dip
 =   - hold bend; also acts as connecting device for hammers/pulls
 <>  - volume swell (louder/softer)
 x   - on rhythm slash represents muted slash
 o   - on rhythm slash represents single note slash

Misc Legend
-----------
 |  - bar
||  - double bar
||o - repeat start
o|| - repeat end
*|  - double bar (ending)
 :  - bar (freetime)
 $  - Segno
 &  - Coda
Tempo markers -  = BPM(8/16=s8/s16), where s8 = swing 8ths, s16 = swing 16ths


***************************************************************************************
***************************************************************************************





Comments


Popular Pain Of Salvation tabs & chords
Road Salt Chords
Second Love Chords
Sisters Chords
Chainsling Tabs
Deus Nova Tabs
Idiocracy Tabs
Latericius Valete Tabs
Ashes Ukulele
Kingdom Of Loss Ukulele
Sisters Ukulele


Song lyrics



↑ Back to top | Tablatures and chords are parodies/interpretations of the original songs. You may use it for private study, scholarship, research or language learning purposes only
© 2014 AZChords.com Contact us | Privacy policy | DMCA | Add/correct tabs | Request tabs | Top 50 tabs