» » »

Pain In The Ass, Wondering Tabs (ver.1)

Artists:  A B C D E F G H I J K L M N O P Q R S T U V W X Y Z # 

Wondering Tabs (ver.1)

Pain In The Ass Tabs
 Rating:
4/5 (4 votes)
Wondering lessons Tabs too difficult? Try these video lessons and learn fast
                pain in the ass,wondering.
  
Pain in the Ass
Wondering                                 

tune your guitar down 1/2 step

Intro (dennis goes stones):
----------
                
        Eb|-----------------------------------------------------------------------|
        Hb|-----------------------------------------------------------------------|
        Gb|-----------------------------------------------------------------------|
        Db|-----------------------------------------------------------------------|
        Ab|-----------------------------------------------------------------------|
        Eb|--5-5--5-7-8--8-8-7-7--5-5--5-7-8~-------------------------------------|
        


Vers:
------
           
        Eb|--------------------------------------------------------------------|
        Hb|--------------------------------------------------------------------|
        Gb|--------------------------------------------------------------------|
        Db|--5-5-5-5-4-4-4-4---------------------------------------------------|
        Ab|--3-3-3-3-2-2-2-2-5-5-5-5-------------------------------------------|
        Eb|------------------3-3-3-3-------------------------------------------|
        

Chorus:
---------

        Eb|--------------------------------------------------------------------|
        Hb|--------------------------------------------------------------------|
        Gb|--------------------------------------------------------------------|
        Db|--------------------------------------------------------------------|
        Ab|--3-3-3-3-5-5-5-5-3-3-3-3-2-2-2-2-----------------------------------|
        Eb|--1-1-1-1-3-3-3-3-1-1-1-1-0-0-0-0-----------------------------------|


Bridge:
--------

        Eb|--------------------------------------------------------------------|
        Hb|--------------------------------------------------------------------|
        Gb|--------------------------------------------------------------------|
        Db|--4-4-4--4--7-7-7----2-2-2--2--5-5-5--------------------------------|
        Ab|--2-2-2--2--5-5-5----0-0-0--0--3-3-3--------------------------------|
        Eb|--------------------------------------------------------------------|

        Eb|--------------------------------------------------------------------|
        Hb|--------------------------------------------------------------------|
        Gb|--------------------------------------------------------------------|
        Db|--9-9-9-9-9-9-9-9---------------------------------------------------|
        Ab|--7-7-7-7-7-7-7-7---------------------------------------------------|
        Eb|--------------------------------------------------------------------|



soloish thing:
---------------
        
        Eb|---0--0--0--0--0--0--0--0-------------------------------------------|
        Hb|--13-13-13-13-12-12-12-12-------------------------------------------|
        Gb|--------------------------12-12-12-12-------------------------------|
        Db|--------------------------------------------------------------------|
        Ab|--------------------------------------------------------------------|
        Eb|--------------------------------------------------------------------|
         
            
Submit corrections

comments powered by Disqus
↑ Back to top | Pain In The Ass Tabs for Wondering. Lyrics for acoustic guitar and electric guitar. Tablatures and chords are parodies/interpretations of the original songs. You may use it for private study, scholarship, research or language learning purposes only