» » »

White Recluse Tabs (ver.1)

Artists:  A B C D E F G H I J K L M N O P Q R S T U V W X Y Z # 

White Recluse Tabs (ver.1)

Pain
Rating:
0/5 (0 votes)

Tabs too difficult? Try these video lessons and learn fast.
                This song was kinda hard since I didn't have a wah, 
but he uses it on almost the entire song

Intro:
e:------------------------------------------------------:
b:-xxxxxxx----------------------------------------------:
g:-xxxxxxx----------1-2-2p1h2h4-7-6-2p1h2h4-7-6-9h11-11-:
D:-xxxxxxx--4p3h4p3-------------------------------------:
A:-xxxxxxx----------------------------------------------:
E:------------------------------------------------------:
   you get the idea, i could be slightly off on this riff...

Verse
e:-----------:p:-----------:p:
b:-----------:l:-10-10-10--:l:
g:-11-11-11--:a:-11-11-11--:a:
D:-----------:y:-----------:y:
A:-----------:8:-----------:8:
E:-----------:x:-----------:x:

Chorus:
e:-------------------------:
b:-------------------------:
g:-------------------------:
D:-------------------------:
A:-444-7-444-7-444-7-444-4-:
E:-222-5-222-5-222-5-222-2-:

Verse 2: same as verse 1 until...
e:-----------------------------------------:
b:-10-10-10--11-11-11--12-12-12--13-13-13--:
g:-11-11-11--12-12-12--13-13-13--14-14-14--:
D:-----------------------------------------:
A:-----------------------------------------:
E:-----------------------------------------:

then
e:-15-15-15--:p:-16-16-16--:
b:-16-16-16--:l:-17-17-17--:
g:-----------:a:-----------:
D:-----------:y:-----------:  play the whole thing twice
A:-----------:3:-----------:
E:-----------:x:-----------:

then
e:------------------12b14-:
b:------------------------:
g:------------------------:
D:-------4b5-4-2----------:
A:-4-2-4------------------:
E:------------------------:

Back to Chorus
Bridge: no guitar, only banjo
Back to Chorus

Outro:
e:---------------------------------------------9-10-12-13-14-:
b:-10-9--------------10-9--------------10-9------------------:
g:------11-10-9-8-7-------6h7-9h11-11-------11---------------:
D:-----------------------------------------------------------:
A:-----------------------------------------------------------:
E:-----------------------------------------------------------:
            
Tabs too difficult? Try these video lessons and learn fast.




comments powered by Disqus
↑ Back to top | Tablatures and chords are parodies/interpretations of the original songs. You may use it for private study, scholarship, research or language learning purposes only