>
 >
The Third Wave

The Third Wave Guitar Tabs

Pain - The Third Wave chords, tabs, tablatures, lyrics

Guitar lessons | Add/correct | Request | Top 50 tabs Artists:  A B C D E F G H I J K L M N O P Q R S T U V W X Y Z 0-9

The Third Wave Guitar Tabs – Pain

CD, Sheet music, Poster

Do you like The Third Wave? Share with your friends now
ChordsTabsUkulele
============================================================================

                        The Third Wave
 
                           Pain

                    Dancing with the Dead
============================================================================



Tuning: Drop A  (A E A D F# B)


 *  = Palm Mute
 @  = Pinched harmonic
 x  = muted
(5) = natural harmonic on said fret
 b  = bend string
 r  = return string


Intro
0:00

|------------------|
|------------------|
|--Pick------------|
|-----Scratch------|
|------------------|
|------------------|

0:01
|----------------------------------------|
|----------------------------------------|
|----------------------------------------|
|--2-2-22--------------------------------|
|--0-0-00--55-5--55--3-3-33--55-5--55----|
|----------55-5--55--3-3-33--55-5--55----|
                                             x2
|----------------------------------------|
|----------------------------------------|
|----------------------------------------|
|--2-2-22--------------------------------|
|--0-0-00--55-5--55--3-3-33--22-2--22----|
|----------55-5--55--3-3-33--22-2--22----|



Verse 1
0:21
|----------------------------------------|
|----------------------------------------|
|----------------------------------------|
|--2--2--2--2--2-----2--2--2--2--2-------|
|--0--0--0--0--0-----0--0--0--0--0-------|
|----------------------------------------|
   *  *  *  *  *     *  *  *  *  *

|----------------------------------------|
|----------------------------------------|
|----------------------------------------|
|--2--2--2--2--2-------------------------|
|--0--0--0--0--0-----3--3--3--6--66--6-6-|
|--------------------3--3--3--6--66--6-6-|
   *  *  *  *  *     *  *  *  *  **  * *

|----------------------------------------|
|----------------------------------------|
|----------------------------------------|
|--2--2--2--2--2-----2--2--2--2--2----22-|
|--0--0--0--0--0-----0--0--0--0--0----00-|
|----------------------------------------|
   *  *  *  *  *     *  *  *  *  *    **

|----------------------------------------|
|----------------------------------------|
|----------------------------------------|
|--2--2--2--2--2-------------------------|
|--0--0--0--0--0-----3--3--3--6--66--6-6-|
|--------------------3--3--3--6--66--6-6-|
   *  *  *  *  *     *  *  *  *  **  * *


Pre-chorus
0:42
|----------------------------------------|
|----------------------------------------|
|----------------------------------------|
|-------------------2--2--2--------------|
|--3--3--3-2--2-----0--0--0--5--5--55----|
|--3--3--3-2--2--22----------5--5--55----|
   *  *  * *  *  ** *  *  *  *  *  **

|----------------------------------------|
|----------------------------------------|
|------------------------Pick------------|
|-------------------2-------Scratch------|
|--3--3--3-2--2--2--2--------------------|
|--3--3--3-2--2--2--2--------------------|
   *  *  * *  *  *

Chorus
0:52

|----------------------------------------|
|----------------------------------------|
|----------------------------------------|
|--2-2-22--------------------------------|
|--0-0-00--55-5--55--3-3-33--55-5--55----|
|----------55-5--55--3-3-33--55-5--55----|
                                             x2
|----------------------------------------|
|----------------------------------------|
|----------------------------------------|
|--2-2-22--------------------------------|
|--0-0-00--55-5--55--3-3-33--22-2--22----|
|----------55-5--55--3-3-33--22-2--22----|


Post-Chorus
1:12

|--------------------------------------------|
|--------------------------------------------|
|--12/14--14-14-14---12/14--14-14-14--12/15--|
|--------------------------------------------|  x3
|--10/12--12-12-12---10/12--12-12-12--10/13--|
|--------------------------------------------|

|----------------------------------------|
|----------------------------------------|
|--9/10-10-10-10--9/10-10-10-10--9/13----|
|----------------------------------------|
|--7/8--8--8--8---7/8--8--8--8---7/11----|
|----------------------------------------|

Repeat one more time


Verse 2
1:32

|----------------------------------------|
|----------------------------------------|
|----------------------------------------|
|--2--2--2--2--2-----2--2--2--2--2-------|
|--0--0--0--0--0-----0--0--0--0--0-------|
|----------------------------------------|
   *  *  *  *  *     *  *  *  *  *

|----------------------------------------|
|----------------------------------------|
|----------------------------------------|
|--2--2--2--2--2-------------------------|
|--0--0--0--0--0-----3--3--3--6--66--6-6-|
|--------------------3--3--3--6--66--6-6-|
   *  *  *  *  *     *  *  *  *  **  * *

|----------------------------------------|
|----------------------------------------|
|----------------------------------------|
|--2--2--2--2--2-----2--2--2--2--2----22-|
|--0--0--0--0--0-----0--0--0--0--0----00-|
|----------------------------------------|
   *  *  *  *  *     *  *  *  *  *    **

|----------------------------------------|
|----------------------------------------|
|----------------------------------------|
|--2--2--2--2--2-------------------------|
|--0--0--0--0--0-----3--3--3--6--66--6-6-|
|--------------------3--3--3--6--66--6-6-|
   *  *  *  *  *     *  *  *  *  **  * *

Pre-Chorus
1:53

|----------------------------------------|
|----------------------------------------|
|----------------------------------------|
|-------------------2--2--2--------------|
|--3--3--3-2--2-----0--0--0--5--5--55----|
|--3--3--3-2--2--22----------5--5--55----|
   *  *  * *  *  ** *  *  *  *  *  **

|----------------------------------------|
|----------------------------------------|
|------------------------Pick------------|
|-------------------2-------Scratch------|
|--3--3--3-2--2--2--2--------------------|
|--3--3--3-2--2--2--2--------------------|
   *  *  * *  *  *

Chorus
2:02

|----------------------------------------|
|----------------------------------------|
|----------------------------------------|
|--2-2-22--------------------------------|
|--0-0-00--55-5--55--3-3-33--55-5--55----|
|----------55-5--55--3-3-33--55-5--55----|
                                             x2
|----------------------------------------|
|----------------------------------------|
|----------------------------------------|
|--2-2-22--------------------------------|
|--0-0-00--55-5--55--3-3-33--22-2--22----|
|----------55-5--55--3-3-33--22-2--22----|


Post-Chorus
2:23

|--------------------------------------------|
|--------------------------------------------|
|--12/14--14-14-14---12/14--14-14-14--12/15--|
|--------------------------------------------|  x3
|--10/12--12-12-12---10/12--12-12-12--10/13--|
|--------------------------------------------|

|----------------------------------------|
|----------------------------------------|
|--9/10-10-10-10--9/10-10-10-10--10/13---|
|----------------------------------------|
|--7/8--8--8--8---7/8--8--8--8---8//11---|
|----------------------------------------|

Repeat one more time


Bridge
2:43

|------------------|
|------------------|
|---/9~~~----------|
|------------------|
|------------------|
|------------------|


Pre-chorus
2:58

|--------------------------------------|
|--------------------------------------|
|--------------------------------------|
|--2--2--2---------------3--2-2--------|
|--0--0--0-5--5--3--3--333--2-2--------|
|----------5--5--3--3--333--2-2--------|
   *  *  * *  *  *  *  **    

Chorus
3:04

|----------------------------------------|
|----------------------------------------|
|----------------------------------------|
|--2-2-22--------------------------------|
|--0-0-00--55-5--55--3-3-33--55-5--55----|
|----------55-5--55--3-3-33--55-5--55----|
                                             x4
|----------------------------------------|
|----------------------------------------|
|----------------------------------------|
|--2-2-22--------------------------------|
|--0-0-00--55-5--55--3-3-33--22-2--22----|
|----------55-5--55--3-3-33--22-2--22----|





Comments


Popular Pain tabs & chords
Jabberjaw Bass Tabs
Antidote Tabs
Close My Eyes Tabs
Don't Let Me Down Tabs
Not Your Kind Tabs
Same Old Song Tabs
Same Old Song 1 Tabs
Shut Your Mouth (Intro) Tabs
Shut Your Mouth 2 Tabs
White Recluse Tabs


Song lyrics



↑ Back to top | Tablatures and chords are parodies/interpretations of the original songs. You may use it for private study, scholarship, research or language learning purposes only
© 2014 AZChords.com Contact us | Privacy policy | DMCA | Add/correct tabs | Request tabs | Top 50 tabs