» » »

Pain, Stay Away Tabs (ver.1)

Artists:  A B C D E F G H I J K L M N O P Q R S T U V W X Y Z # 

Stay Away Tabs (ver.1)

Pain Tabs
 Rating:
4.2/5 (5 votes)
Stay Away lessons Tabs too difficult? Try these video lessons and learn fast
1
                ============================================================================

                           Stay Away
 
                           Pain

                    Dancing with the Dead
============================================================================

Not an overly challenging song - 1 basic riff
Sorta surprised it hasn't been done yet



Tuning: Drop A  (A E A D F# B)


 *  = Palm Mute
 @  = Pinched harmonic
 x  = muted
(5) = natural harmonic on said fret
 b  = bend string
 r  = return string


Intro
0:14

Some sort of pick scratch prior to playing

|----------------------------------------|
|----------------------------------------|
|----------------------------------------|
|--3-2-0--6-0-0--5--0-2-3-2--3-2---------|
|--3-2-0--6-0-0--5--0-2-3-2--3-2---------|
|--3-2-0--6-0-0--5--0-2-3-2--3-2---------|
   * * *    * *     * * * *  * *

|----------------------------------------|
|----------------------------------------|
|----------------------------------------|
|----------------------------------------|
|--3-2-0--6-0-0--5--0--------------------|
|--3-2-0--6-0-0--5--0--000-000-000-------|
   * * *    * *     *  *** *** ***

|----------------------------------------|
|----------------------------------------|
|----------------------------------------|
|--3-2-0--6-0-0--5-----------------------|
|--3-2-0--6-0-0--5--0-2-3-2--3-2---------|
|--3-2-0--6-0-0--5--0-2-3-2--3-2---------|
   * * *    * *

|----------------------------------------|
|----------------------------------------|
|----------------------------------------|
|----------------------------------------|
|--3-2-0--6-0-0--5--0--------------------|
|--3-2-0--6-0-0--5--0--000-000-0---------|
   * * *    * *     *  *** *** *


Verse 1
0:29

|----------------------------------------|
|----------------------------------------|
|-----Nothing is played------------------|
|---------here, Bass only----------------|
|----------------------------------------|
|----------------------------------------|


0:59
|----------------------------------------|
|----------------------------------------|
|----------------------------------------|
|--3-2-0--6-0-0--5--0-2-3-2--3-2---------|
|--3-2-0--6-0-0--5--0-2-3-2--3-2---------|
|--3-2-0--6-0-0--5--0-2-3-2--3-2---------|
   * * *    * *     * * * *  * *

|----------------------------------------|
|----------------------------------------|
|----------------------------------------|
|----------------------------------------|
|--3-2-0--6-0-0--5--0--------------------|
|--3-2-0--6-0-0--5--0--000-000-000-------|
   * * *    * *     *  *** *** ***

|----------------------------------------|
|----------------------------------------|
|----------------------------------------|
|--3-2-0--6-0-0--5-----------------------|
|--3-2-0--6-0-0--5--0-2-3-2--3-2---------|
|--3-2-0--6-0-0--5--0-2-3-2--3-2---------|
   * * *    * *

|----------------------------------------|
|----------------------------------------|
|----------------------------------------|
|----------------------------------------|
|--3-2-0--6-0-0--5--0--------------------|
|--3-2-0--6-0-0--5--0--000-000-0---------|
   * * *    * *     *  *** *** *

Chorus
1:14

|----------------------------------------|
|----------------------------------------|
|----------------------------------------|
|--3-2-0--6-0-0--5--0-2-3-2--3-2---------|
|--3-2-0--6-0-0--5--0-2-3-2--3-2---------|
|--3-2-0--6-0-0--5--0-2-3-2--3-2---------|


|----------------------------------------|
|----------------------------------------|
|----------------------------------------|
|----------------------------------------|
|--3-2-0--6-0-0--5--0--------------------|
|--3-2-0--6-0-0--5--0--000-000-000-------|
                       *** *** ***

|----------------------------------------|
|----------------------------------------|
|----------------------------------------|
|--3-2-0--6-0-0--5-----------------------|
|--3-2-0--6-0-0--5--0-2-3-2--3-2---------|
|--3-2-0--6-0-0--5--0-2-3-2--3-2---------|


|----------------------------------------|
|----------------------------------------|
|----------------------------------------|
|----------------------------------------|
|--3-2-0--6-0-0--5--0--000-000-0---------|
|--3-2-0--6-0-0--5--0--000-000-0---------|
                       *** *** *

Verse 2
1:28

|----------------------------------------|
|----------------------------------------|
|-----Nothing is played------------------|
|---------here, Bass only----------------|
|----------------------------------------|
|----------------------------------------|


1:58
|----------------------------------------|
|----------------------------------------|
|----------------------------------------|
|--3-2-0--6-0-0--5--0-2-3-2--3-2---------|
|--3-2-0--6-0-0--5--0-2-3-2--3-2---------|
|--3-2-0--6-0-0--5--0-2-3-2--3-2---------|
   * * *    * *     * * * *  * *

|----------------------------------------|
|----------------------------------------|
|----------------------------------------|
|----------------------------------------|
|--3-2-0--6-0-0--5--0--------------------|
|--3-2-0--6-0-0--5--0--000-000-000-------|
   * * *    * *     *  *** *** ***

|----------------------------------------|
|----------------------------------------|
|----------------------------------------|
|--3-2-0--6-0-0--5-----------------------|
|--3-2-0--6-0-0--5--0-2-3-2--3-2---------|
|--3-2-0--6-0-0--5--0-2-3-2--3-2---------|
   * * *    * *

|----------------------------------------|
|----------------------------------------|
|----------------------------------------|
|----------------------------------------|
|--3-2-0--6-0-0--5--0--------------------|
|--3-2-0--6-0-0--5--0--000-000-0---------|
   * * *    * *     *  *** *** *

Chorus 
2:13

|----------------------------------------|
|----------------------------------------|
|----------------------------------------|
|--3-2-0--6-0-0--5--0-2-3-2--3-2---------|
|--3-2-0--6-0-0--5--0-2-3-2--3-2---------|
|--3-2-0--6-0-0--5--0-2-3-2--3-2---------|


|----------------------------------------|
|----------------------------------------|
|----------------------------------------|
|----------------------------------------|
|--3-2-0--6-0-0--5--0--------------------|
|--3-2-0--6-0-0--5--0--000-000-000-------|
                       *** *** ***

|----------------------------------------|
|----------------------------------------|
|----------------------------------------|
|--3-2-0--6-0-0--5-----------------------|
|--3-2-0--6-0-0--5--0-2-3-2--3-2---------|
|--3-2-0--6-0-0--5--0-2-3-2--3-2---------|


|----------------------------------------|
|----------------------------------------|
|----------------------------------------|
|----------------------------------------|
|--3-2-0--6-0-0--5--0--000-000-0---------|
|--3-2-0--6-0-0--5--0--000-000-0---------|
                       *** *** *

Bridge
2:27

It's not the exact strum pattern, but it's
not hard to figure out

|------------------------------------------|
|------------------------------------------|
|------------------------------------------|
|--2-2-2-2-2-2--2/3-3-3-3-3--3/5-5-5-5-5---|
|--2-2-2-2-2-2--2/3-3-3-3-3--3/5-5-5-5-5---|
|--2-2-2-2-2-2--2/3-3-3-3-3--3/5-5-5-5-5---|

|------------------------------------------|
|------------------------------------------|
|------------------------------------------|
|-2-2-2-2-2/3-3-3-3-0-0-0-0-0h2-2-2-2-2-5@-|
|-2-2-2-2-2/3-3-3-3-0-0-0-0-0h2-2-2-2-2----|
|-2-2-2-2-2/3-3-3-3-0-0-0-0-0h2-2-2-2-2----|


2:42
|----------------------------------------|
|----------------------------------------|
|----------------------------------------|
|--3-2-0--6-0-0--5--0-2-3-2--3-2---------|
|--3-2-0--6-0-0--5--0-2-3-2--3-2---------|
|--3-2-0--6-0-0--5--0-2-3-2--3-2---------|
   * * *    * *     * * * *  * *

|----------------------------------------|
|----------------------------------------|
|----------------------------------------|
|----------------------------------------|
|--3-2-0--6-0-0--5--0--------------------|
|--3-2-0--6-0-0--5--0--000-000-000-------|
   * * *    * *     *  *** *** ***

|----------------------------------------|
|----------------------------------------|
|----------------------------------------|
|--3-2-0--6-0-0--5-----------------------|
|--3-2-0--6-0-0--5--0-2-3-2--3-2---------|
|--3-2-0--6-0-0--5--0-2-3-2--3-2---------|
   * * *    * *

|----------------------------------------|
|----------------------------------------|
|----------------------------------------|
|----------------------------------------|
|--3-2-0--6-0-0--5--0--------------------|
|--3-2-0--6-0-0--5--0--000-000-0---------|
   * * *    * *     *  *** *** *

Final Chorus Section
2:57

|----------------------------------------|
|----------------------------------------|
|----------------------------------------|
|--3-2-0--6-0-0--5--0-2-3-2--3-2---------|
|--3-2-0--6-0-0--5--0-2-3-2--3-2---------|
|--3-2-0--6-0-0--5--0-2-3-2--3-2---------|


|----------------------------------------|
|----------------------------------------|
|----------------------------------------|
|----------------------------------------|
|--3-2-0--6-0-0--5--0--------------------|
|--3-2-0--6-0-0--5--0--000-000-000-------|
                       *** *** ***

|----------------------------------------|
|----------------------------------------|
|----------------------------------------|
|--3-2-0--6-0-0--5-----------------------|
|--3-2-0--6-0-0--5--0-2-3-2--3-2---------|
|--3-2-0--6-0-0--5--0-2-3-2--3-2---------|


|----------------------------------------|
|----------------------------------------|
|----------------------------------------|
|----------------------------------------|
|--3-2-0--6-0-0--5--0--000-000-0---------|
|--3-2-0--6-0-0--5--0--000-000-0---------|
                       *** *** *
            
Submit corrections

comments powered by Disqus
↑ Back to top | Pain Tabs for Stay Away. Lyrics for acoustic guitar and electric guitar. 1 Tablatures and chords are parodies/interpretations of the original songs. You may use it for private study, scholarship, research or language learning purposes only