>
 >
Same Old Song 1

Same Old Song 1 Guitar Tabs

Pain - Same Old Song 1 chords, tabs, tablatures, lyrics

Guitar lessons | Add/correct | Request | Top 50 tabs Artists:  A B C D E F G H I J K L M N O P Q R S T U V W X Y Z 0-9

Same Old Song 1 Guitar Tabs – Pain

CD, Sheet music, Poster

Do you like Same Old Song 1? Share with your friends now
TabsTabs v2
============================================================================

                          Pain

                   Dancing With The Dead
                       Same Old Song
============================================================================



Tuning: Drop A  (A E A D G B E) (7-string, doesn't really matter this is all
                                 low end playing, 6 string in drop A will work)


 *  = Palm Mute
 @  = Pinched harmonic
 x  = muted
(5) = natural harmonic on said fret
 b  = bend string
 r  = return string
 t  = tremelo picking


Intro

0:20                          0:25  
|-----------------------|     |-----------------------|
|-----------------------|     |-----------------------|       
|-----------------------|     |-----------------------|       
|-----------------------|     |-----------------------|       
|----2----2-----2-------|     |----2----2-----2-------|       
|----2----2-----2-------|     |----2----2-----2-------|       
|----2----2-----2-------|     |----2----2-----2-------|       
     *    *     *                  *    *     *


0:30

|------------------------------------------------------------|
|------------------------------------------------------------|
|------------------------------------------------------------|
|------------------------------------------------------------|
|----------------------------------2---2---------------------|
|----2--2--2---2-2-2-2-2-2----2-2--0---0--2---2-2-2-2-2-2----|
|----2--2--2---2-2-2-2-2-2----2-2---------2---2-2-2-2-2-2----|
     *  *  *   * * * * * *    * *  *   *  *   * * * * * *

|------------------------------------------------------------|
|------------------------------------------------------------|
|------------------------------------------------------------|
|------------------------------------------------------------|
|----------------------------------0---5---------------------|
|----2--2--2---2-2-2-2-2-2----2-2--0---5--2---2-2-2-2-2-2----|
|----2--2--2---2-2-2-2-2-2----2-2--0---5--2---2-2-2-2-2-2----|
     *  *  *   * * * * * *    * *  *   *  *   * * * * * *

Repeat Once


Verse I

0:50

|-----------------------------------------------------------------|
|-----------------------------------------------------------------|
|-----------------------------------------------------------------|
|-----------------------------------------------------------------|
|----------------------------------2---2--------------------------|
|----2--2--2---2-2-2-2-2-2----2-2--0---0--2---2-2-2-2-2-2---------|
|----2--2--2---2-2-2-2-2-2----2-2---------2---2-2-2-2-2-2---------|
     *  *  *   * * * * * *    * *  *   *  *   * * * * * * 
                                                                        x2
|-----------------------------------------------------------------|
|-----------------------------------------------------------------|
|-----------------------------------------------------------------|
|-----------------------------------------------------------------|
|---------2---2--------------------2-2--0---0---------------------|
|----2-2--0---0--2---2-2-2-2-2-2---2-2--0---0--2---2-2-2-2-2-2----|
|----2-2---------2---2-2-2-2-2-2---2-2--0---0--2---2-2-2-2-2-2----|
     * *  *   *  *   * * * * * *   * *  *   *  *   * * * * * * 

Pre-chorus
1:11

|-----------------------------------------------------------------|
|-----------------------------------------------------------------|
|-----------------------------------------------------------------|
|--5-5-5-5-5-5-5-5-5-5-5-5-5--------------------------------------|
|--5-5-5-5-5-5-5-5-5-5-5-5-5--------------------------------------|
|--3-3-3-3-3-3-3-3-3-3-3-3-3-0-0--2-2-2-2-2-2-2-2-2-2-2-2-2-2-2-2-|
|----------------------------0-0--2-2-2-2-2-2-2-2-2-2-2-2-2-2-2-2-|


|-----------------------------------------------------------------|
|-----------------------------------------------------------------|
|-----------------------------------------------------------------|
|--5-5-5-5-5-5-5-5-5-5-5-5-5-5-5----------------------------------|
|--5-5-5-5-5-5-5-5-5-5-5-5-5-5-5--4-4-4-4-4-4-4-4-----------------|
|--3-3-3-3-3-3-3-3-3-3-3-3-3-3-3--2-2-2-2-2-2-2-2-5-5-5-5-5-5-5-5-|
|-------------------------------------------------5-5-5-5-5-5-5-5-|


Chorus/Main Riff
1:31

|------------------------------------------------------------|
|------------------------------------------------------------|
|------------------------------------------------------------|
|------------------------------------------------------------|
|----------------------------------2---2---------------------|
|----2--2--2---2-2-2-2-2-2----2-2--0---0--2---2-2-2-2-2-2----|
|----2--2--2---2-2-2-2-2-2----2-2---------2---2-2-2-2-2-2----|
     *  *  *   * * * * * *    * *  *   *  *   * * * * * *

|------------------------------------------------------------|
|------------------------------------------------------------|
|------------------------------------------------------------|
|------------------------------------------------------------|
|----------------------------------0---5---------------------|
|----2--2--2---2-2-2-2-2-2----2-2--0---5--2---2-2-2-2-2-2----|
|----2--2--2---2-2-2-2-2-2----2-2--0---5--2---2-2-2-2-2-2----|
     *  *  *   * * * * * *    * *  *   *  *   * * * * * *

Repeat Once


Verse II
1:51

|-----------------------------------------------------------------|
|-----------------------------------------------------------------|
|-----------------------------------------------------------------|
|-----------------------------------------------------------------|
|----------------------------------2---2--------------------------|
|----2--2--2---2-2-2-2-2-2----2-2--0---0--2---2-2-2-2-2-2---------|
|----2--2--2---2-2-2-2-2-2----2-2---------2---2-2-2-2-2-2---------|
     *  *  *   * * * * * *    * *  *   *  *   * * * * * * 
                                                                        x2
|-----------------------------------------------------------------|
|-----------------------------------------------------------------|
|-----------------------------------------------------------------|
|-----------------------------------------------------------------|
|---------2---2--------------------2-2--0---0---------------------|
|----2-2--0---0--2---2-2-2-2-2-2---2-2--0---0--2---2-2-2-2-2-2----|
|----2-2---------2---2-2-2-2-2-2---2-2--0---0--2---2-2-2-2-2-2----|
     * *  *   *  *   * * * * * *   * *  *   *  *   * * * * * * 


Pre-chrus
2:11

|-----------------------------------------------------------------|
|-----------------------------------------------------------------|
|-----------------------------------------------------------------|
|--5-5-5-5-5-5-5-5-5-5-5-5-5--------------------------------------|
|--5-5-5-5-5-5-5-5-5-5-5-5-5--------------------------------------|
|--3-3-3-3-3-3-3-3-3-3-3-3-3-0-0--2-2-2-2-2-2-2-2-2-2-2-2-2-2-2-2-|
|----------------------------0-0--2-2-2-2-2-2-2-2-2-2-2-2-2-2-2-2-|


|-----------------------------------------------------------------|
|-----------------------------------------------------------------|
|-----------------------------------------------------------------|
|--5-5-5-5-5-5-5-5-5-5-5-5-5-5-5----------------------------------|
|--5-5-5-5-5-5-5-5-5-5-5-5-5-5-5--4-4-4-4-4-4-4-4-----------------|
|--3-3-3-3-3-3-3-3-3-3-3-3-3-3-3--2-2-2-2-2-2-2-2-5-5-5-5-5-5-5-5-|
|-------------------------------------------------5-5-5-5-5-5-5-5-|


Chorus
2:31

|------------------------------------------------------------|
|------------------------------------------------------------|
|------------------------------------------------------------|
|------------------------------------------------------------|
|----------------------------------2---2---------------------|
|----2--2--2---2-2-2-2-2-2----2-2--0---0--2---2-2-2-2-2-2----|
|----2--2--2---2-2-2-2-2-2----2-2---------2---2-2-2-2-2-2----|
     *  *  *   * * * * * *    * *  *   *  *   * * * * * *

|------------------------------------------------------------|
|------------------------------------------------------------|
|------------------------------------------------------------|
|------------------------------------------------------------|
|----------------------------------0---5---------------------|
|----2--2--2---2-2-2-2-2-2----2-2--0---5--2---2-2-2-2-2-2----|
|----2--2--2---2-2-2-2-2-2----2-2--0---5--2---2-2-2-2-2-2----|
     *  *  *   * * * * * *    * *  *   *  *   * * * * * *

Repeat Once


Bridge
2:53

|---------------|
|---------------|
|---------------|
|---------------|
|---2----let----|
|---2-----ring--|
|---2-----------|


Fade in around 3:01
|------------------------------------------------------------|
|------------------------------------------------------------|
|------------------------------------------------------------|
|------------------------------------------------------------|
|----------------------------------2---2---------------------|
|----2--2--2---2-2-2-2-2-2----2-2--0---0--2---2-2-2-2-2-2----|
|----2--2--2---2-2-2-2-2-2----2-2---------2---2-2-2-2-2-2----|
     *  *  *   * * * * * *    * *  *   *  *   * * * * * *

|------------------------------------------------------------|
|------------------------------------------------------------|
|------------------------------------------------------------|
|------------------------------------------------------------|
|----------------------------------0---5---------------------|
|----2--2--2---2-2-2-2-2-2----2-2--0---5--2---2-2-2-2-2-2----|
|----2--2--2---2-2-2-2-2-2----2-2--0---5--2---2-2-2-2-2-2----|
     *  *  *   * * * * * *    * *  *   *  *   * * * * * *

Chorus
3:12

|------------------------------------------------------------|
|------------------------------------------------------------|
|------------------------------------------------------------|
|------------------------------------------------------------|
|----------------------------------4---4---------------------|
|----4--4--4---4-4-4-4-4-4----4-4--2---2--4---4-4-4-4-4-4----|
|----4--4--4---4-4-4-4-4-4----4-4---------4---4-4-4-4-4-4----|
     *  *  *   * * * * * *    * *  *   *  *   * * * * * *
                                                                  x3
|------------------------------------------------------------|
|------------------------------------------------------------|
|------------------------------------------------------------|
|------------------------------------------------------------|
|------------------------------------------------------------|
|----4--4--4---4-4-4-4-4-4----4-4--2---7--4---4-4-4-4-4-4----|
|----4--4--4---4-4-4-4-4-4----4-4--2---7--4---4-4-4-4-4-4----|
     *  *  *   * * * * * *    * *  *   *  *   * * * * * *

|------------------------------------------------------------|
|------------------------------------------------------------|
|------------------------------------------------------------|
|------------------------------------------------------------|
|----------------------------------4---4---------------------|
|----4--4--4---4-4-4-4-4-4----4-4--2---2--4---4-4-4-4-4-4----|
|----4--4--4---4-4-4-4-4-4----4-4---------4---4-4-4-4-4-4----|
     *  *  *   * * * * * *    * *  *   *  *   * * * * * *
                                                              
|------------------------------------------------------------|
|------------------------------------------------------------|
|------------------------------------------------------------|
|------------------------------------------------------------|
|------------------------------------------------------------|
|----4--4--4---4-4-4-4-4-4----4-4--2---7--4------------------|
|----4--4--4---4-4-4-4-4-4----4-4--2---7--4------------------|
     *  *  *   * * * * * *    * *  *
                                   slow down for these last 3
                                        chords





Comments


Popular Pain tabs & chords
Shut Your Mouth Bass Tabs
Gavin Chords
Antidote Tabs
Bye/Die Tabs
Dark Fields Of Pain Intro Tabs
Follow Me Tabs
Shut Your Mouth Tabs
Shut Your Mouth (Intro) Tabs
Stay Away Tabs
White Recluse Tabs


Song lyrics



↑ Back to top | Tablatures and chords are parodies/interpretations of the original songs. You may use it for private study, scholarship, research or language learning purposes only
© 2014 AZChords.com Contact us | Privacy policy | DMCA | Add/correct tabs | Request tabs | Top 50 tabs