>
 >
Not Your Kind

Not Your Kind Guitar Tabs

Pain - Not Your Kind chords, tabs, tablatures, lyrics

Guitar lessons | Add/correct | Request | Top 50 tabs Artists:  A B C D E F G H I J K L M N O P Q R S T U V W X Y Z 0-9

Not Your Kind Guitar Tabs – Pain

CD, Sheet music, Poster

Do you like Not Your Kind? Share with your friends now
Tabs
============================================================================

                       Not Your Kind
 
                           Pain

                      Cynic Paradise
============================================================================



Tuning: Drop A  (A E A D F# B)


 *  = Palm Mute
 @  = Pinched harmonic
 x  = muted
(5) = natural harmonic on said fret
 b  = bend string
 r  = return string



Intro
0:00

Guitar I
|------------------------------------------------------------|
|------------------------------------------------------------|
|------------------------------------------------------------|
|--------------------5-5-5-5---------------------------------|
|---222222222\1111---3-3-3-3---222222222\1111---5--5--5--5---|
|---222222222\1111-------------222222222\1111---5--5--5--5---|


Guitar II
|------------------------------------------------------------|
|------------------------------------------------------------|
|------------------------------------------------------------|
|---999999999\8888---5-5-5-5---999999999\8888---12-12-12-12--|
|---777777777\6666---3-3-3-3---777777777\6666---10-10-10-10--|
|------------------------------------------------------------|


Verse 1
0:13
|-------------|
|-------------|
|-------------|
|---9\\-------|
|---7\\-------|
|-------------|



Prechorus
0:25

Guitar I
|------------------------------------------------------------|
|------------------------------------------------------------|
|------------------------------------------------------------|
|--------------------5-5-5-5---------------------------------|
|---222222222\1111---3-3-3-3---222222222\1111---5--5--5--5---|
|---222222222\1111-------------222222222\1111---5--5--5--5---|


Guitar II
|------------------------------------------------------------|
|------------------------------------------------------------|
|------------------------------------------------------------|
|---999999999\8888---5-5-5-5---999999999\8888---12-12-12-12--|
|---777777777\6666---3-3-3-3---777777777\6666---10-10-10-10--|
|------------------------------------------------------------|


Verse 2
0:36
|-------------|
|-------------|
|-------------|
|---9\\-------|
|---7\\-------|
|-------------|


Chorus
0:49
|------------------------------------------------------------|
|------------------------------------------------------------|
|------------------------------------------------------------|
|--7------3-------8----5--------7------3-----8----5-55\44----|
|--5------3-------8----5--------5------3-----8----5-55\44----|
|--0------3-------8----5--------0------3-----8----5-55\44----|




Post-Chorus
1:13

Guitar I
|-----------------------------------------------------|
|-----------------------------------------------------|
|-----------------------------------------------------|
|-3-000-5-000-7-000-8~--3-000-5-000-7-000-8-8/10~-----|  x2
|-----------------------------------------------------|
|-----------------------------------------------------|

Guitar II
|-----------------------------------------------------|
|-----------------------------------------------------|
|-----------------------------------------------------|
|-3-000-3-000-2-000-3~--3-000-3-000-2-000-3-3/5~------|  x2
|-----------------------------------------------------|
|-----------------------------------------------------|


Intro (Revisit)
1:26

Guitar I
|------------------------------------------------------------|
|------------------------------------------------------------|
|------------------------------------------------------------|
|--------------------5-5-5-5---------------------------------|
|---222222222\1111---3-3-3-3---222222222\1111---5--5--5--5---|
|---222222222\1111-------------222222222\1111---5--5--5--5---|


Guitar II
|------------------------------------------------------------|
|------------------------------------------------------------|
|------------------------------------------------------------|
|---999999999\8888---5-5-5-5---999999999\8888---12-12-12-12--|
|---777777777\6666---3-3-3-3---777777777\6666---10-10-10-10--|
|------------------------------------------------------------|



Verse 3
1:38

|-------------|
|-------------|
|-------------|
|---9\\-------|
|---7\\-------|
|-------------|

Chorus
1:50

|------------------------------------------------------------|
|------------------------------------------------------------|
|------------------------------------------------------------|
|--7------3-------8----5--------7------3-----8----5-55\44----|
|--5------3-------8----5--------5------3-----8----5-55\44----|
|--0------3-------8----5--------0------3-----8----5-55\44----|



Post-Chorus
2:16

Guitar I
|-----------------------------------|
|-----------------------------------|
|-----------------------------------|
|--3--0-0-0--5--0-0-0--7-0-0-0-8~---|  x8
|--3--0-0-0--5--0-0-0--7-0-0-0-8~---|
|--3--0-0-0--5--0-0-0--7-0-0-0-8~---|

Guitar II
|-----------------------------------|
|-----------------------------------|
|-----------------------------------|
|--3--0-0-0--3--0-0-0--2-0-0-0-3~---|  x8
|-----------------------------------|
|-----------------------------------|


Break
2:41

|----------------------------------|
|----------------------------------|
|----------------------------------|
|---7-8---7-8-10---5--7---5--7-----| x4
|---7-8---7-8-10---5--7---5--7-----|
|---7-8---7-8-10---5--7---5--7-----|


Chorus (Revisit)
3:05

|------------------------------------------------------------|
|------------------------------------------------------------|
|------------------------------------------------------------|
|--7------3-------8----5--------7------3-----8----5-55\44----|
|--5------3-------8----5--------5------3-----8----5-55\44----|
|--0------3-------8----5--------0------3-----8----5-55\44----|


Chorus
3:28

|------------------------------------------------------------|
|------------------------------------------------------------|
|------------------------------------------------------------|
|--7------3-------8----5--------7------3-----8----5-55\44----|
|--5------3-------8----5--------5------3-----8----5-55\44----|
|--0------3-------8----5--------0------3-----8----5-55\44----|



Post-Chorus
3:54

Guitar I
|-----------------------------------------------------|
|-----------------------------------------------------|
|-----------------------------------------------------|
|-3-000-5-000-7-000-8~--3-000-5-000-7-000-8-8/10~-----|  x2
|-----------------------------------------------------|
|-----------------------------------------------------|

Guitar II
|-----------------------------------------------------|
|-----------------------------------------------------|
|-----------------------------------------------------|
|-3-000-3-000-2-000-3~--3-000-3-000-2-000-3-3/5~------|  x2
|-----------------------------------------------------|
|-----------------------------------------------------|





Comments


Popular Pain tabs & chords
Jabberjaw Bass Tabs
Shut Your Mouth Bass Tabs
Gavin Chords
The Third Wave Chords
Don't Let Me Down Tabs
End Of The Line Tabs
End Of The Line 1 Tabs
Same Old Song Tabs
Tear It Up Tabs
The Third Wave Ukulele


Song lyrics



↑ Back to top | Tablatures and chords are parodies/interpretations of the original songs. You may use it for private study, scholarship, research or language learning purposes only
© 2014 AZChords.com Contact us | Privacy policy | DMCA | Add/correct tabs | Request tabs | Top 50 tabs