» » »

Jabberjaw Tabs (ver.1)

Artists:  A B C D E F G H I J K L M N O P Q R S T U V W X Y Z # 

Jabberjaw Tabs (ver.1)

Pain
Rating:
5/5 (1 vote)

Hard to play? Try these video lessons and learn fast.
                -------------------------------------------------------------------------------
-------------------------------------------------------------------------------

Tuning:Standard (EADGBe)

Intro:
e|------------|
B|------------|
G|-5----------|
D|-5--7--5----|  Play 3 Times
A|-3--7--5----|
E|----5--3----|

Intro Pt 2:
e|-----------------|
B|-----------------|
G|------------5----|
D|-3------5---5----|
A|-3------5---3----|
E|-1------3--------|

Verse:
e|----------------------------------------------|
B|----------------------------------------------|
G|-55555555-------------------------------------|
D|-55555555-3333-5555-3333-5555-7777-5555-------|    Play 2 Times
A|-33333333-3333-5555-3333-5555-7777-5555-------|
E|----------1111-3333-1111-3333-5555-3333-------|

Chorus:
e|-----------------------------------------------|
B|-----------------------------------------------|
G|-55555555------5555-55555555-------------------|
D|-55555555-3333-5555-55555555-7777-5555---------|
A|-33333333-3333-3333-33333333-7777-5555---------|
E|----------1111---------------5555-3333---------|

e|-----------------------------------------------|
B|-----------------------------------------------|
D|----------------------------44444444-----------|
G|-33333333-55555555-77777777-44444444-----------|
A|-33333333-55555555-77777777-22222222-----------|
E|-11111111-33333333-55555555--------------------|

Right After Chorus:
e|-----------------------------------------------|
B|-----------------------------------------------|
G|-5---------------------5--------------55-55----|
D|-5-5-7----------33-33--5-5-7----------55-55----|
A|-3-----7-5-3-5--33-33--3-----7-5-3-5--33-33----|
E|----------------11-11--------------------------|

High Part in 2nd Chorus:
e|-15-15-15-15-15-15-15-15-----------------------|
B|-13-13-13-13-13-13-13-13-----------------------|
G|-----------------------------------------------|
D|-----------------------------------------------|
A|-----------------------------------------------|
E|-----------------------------------------------|

Order of Song:

Intro:
Intro Pt 2:
Verse:
Chorus:
Right After Chorus:
Intro:
Verse:
Chorus w/High Part:
===============================================================================
            
Hard to play? Try these video lessons and learn fast. | Correct




comments powered by Disqus
↑ Back to top | Tablatures and chords are parodies/interpretations of the original songs. You may use it for private study, scholarship, research or language learning purposes only