>
 >
Full Speed Ahead B

Full Speed Ahead B Guitar Tabs

Pain - Full Speed Ahead B chords, tabs, tablatures, lyrics

Guitar lessons | Add/correct | Request | Top 50 tabs Artists:  A B C D E F G H I J K L M N O P Q R S T U V W X Y Z 0-9

Full Speed Ahead B Guitar Tabs – Pain

CD, Sheet music, Poster

Do you like Full Speed Ahead B? Share with your friends now
Tabs
-------------------------------------------------------------------
                           FULL SPEED AHEAD - Pain
-------------------------------------------------------------------

Intro
e:-------------:-------------------------------------------:
b:-------------:-------------------------------------------:
g:----------5--:-------------77777777-55555555-55-44-22----:
D:-5--5--2--5--:----55555555-77777777-55555555-55-44-22-55-:
A:-5--5--2--3--:----55555555-55555555-33333333-33-22-00-55-:
E:-3--2--0-----:-8/-33333333----------------------------33-:

Riff thingy
e:-33333333-------------------------------------------------:
b:-33333333-3---77777777-3------------------3-----3-----3---:
g:-44444444--4--77777777--4--4444-6666-7777--4-----4-----4--:
D:-55555555---5-77777777---5-2222-4444-5555---5-----5-0---5-:
A:--------------55555555------------------------3-----------:
E:----------------------------------------------------------:

Verse:
e:-----------------------------------------------------:
b:-----------------------------------------------------:
g:-----------------------5-------5-----------5555-7777-:
D:-------5-------5--5-3h5---5-3h5--2222-5555-5555-7777-:
A:--5-3h5---5-3h5--3-------3-------2222-5555-3333-5555-: x2
E:-3-------2-----------------------0000-3333-----------:

Prechorus:
e:-----------------------------------:
b:-----------------------------------:
g:------------------5-5-5-5-77777777-:
D:-5-5-5-5-55555555-5-5-5-5-77777777-:
A:-5-5-5-5-55555555-3-3-3-3-55555555-:
E:-3-3-3-3-22222222------------------:

then:
e:-------------------------------------:
b:-------------------------------------:
g:----------77777777-55555555-77777777-:
D:-55555555-77777777-55555555-77777777-:
A:-55555555-55555555-33333333-55555555-:
E:-33333333----------------------------:

Chorus: "Full Speed, Ahead!"
e:---------------------------------------------------------:
b:---------------------------------------------------------:
g:------77---44---55------------77777777-44444444-55555555-:
D:-55---77---44---55---55555555-77777777-44444444-55555555-:
A:-55---55---22---33---55555555-55555555-22222222-33333333-:
E:-33------------------33333333----------------------------:

Back to Riff
Back to Verse
Back to Prechorus
Back to Chorus

Bridge 1:
e:-------------------------------------:
b:-------------------------------------:
g:----------77777777-99999999-55555555-:
D:-55555555-77777777-99999999-55555555-:
A:-55555555-55555555-77777777-33333333-:
E:-33333333----------------------------:

Bridge 2:
e:--0---0---0---0--:p:--0---0---0--22222222-3333-5555-:
b:---0---0---0---0-:l:---0---0---0-33333333-3333-3333-:
g:-----------------:a:-------------22222222-2222-2222-:
D:-----------------:y:-------------00000000-0000-0000-:
A:-----3-------5---:3:-----3--------------------------:
E:-0-------3-------:x:-0-------3----------------------:

Back to Prechorus
Back to Chorus

Outro:
e:----------------------------------------:
b:----------------------------------------:
g:----------77777777-55555555-55-44-22-44-:
D:-55555555-77777777-55555555-55-44-22-44-:
A:-55555555-55555555-33333333-33-22-00-22-:
E:-33333333-------------------------------:

Ending:
e:-33333333-------------------------------:
b:-33333333-77777777-55555555-55-44-22-44-:
g:-44444444-77777777-55555555-55-44-22-44-:
D:-55555555-77777777-55555555-55-44-22-44-:
A:-55555555-55555555-33333333-33-22-00-22-:
E:-33333333-------------------------------:

end

----------------------------------------------------------------





Comments


Popular Pain tabs & chords
Shut Your Mouth Bass Tabs
The Third Wave Chords
Bitch Tabs
Easy Out Tabs
Excalibur Tabs
Follow Me Tabs
Jabberjaw Tabs
Same Old Song Tabs
Shut Your Mouth 2 Tabs
Gavin Ukulele


Song lyrics



↑ Back to top | Tablatures and chords are parodies/interpretations of the original songs. You may use it for private study, scholarship, research or language learning purposes only
© 2014 AZChords.com Contact us | Privacy policy | DMCA | Add/correct tabs | Request tabs | Top 50 tabs