» » »

Pain, Don't Count Me Out Tabs (ver.1)

Artists:  A B C D E F G H I J K L M N O P Q R S T U V W X Y Z # 

Don't Count Me Out Tabs (ver.1)

Pain Tabs
 Rating:
4/5 (5 votes)
Don't Count Me Out lessons Tabs too difficult? Try these video lessons and learn fast
                ============================================================================

                     Don't Count Me Out
 
                           Pain

                    Dancing with the Dead
============================================================================



Tuning: Drop A  (A E A D F# B)


 *  = Palm Mute
 @  = Pinched harmonic
 x  = muted
(5) = natural harmonic on said fret
 b  = bend string
 r  = return string
 t  = tremolo pick


Intro
0:20

|--------------------------------------------------------------------|
|--------------------------------------------------------------------|
|--------------------------------------------------------------------|
|--00-000-000-000-000-000-000-003--00-000-000-000-000-000-0-0-0-03---|
|--00-000-000-000-000-000-000-003--00-000-000-000-000-000-0-0-0-03---|
|--00-000-000-000-000-000-000-003--00-000-000-000-000-000-0-0-0-03---|
   ** *** *** *** *** *** *** **   ** *** *** *** *** *** * * * *

|--------------------------------------------------------------------|
|--------------------------------------------------------------------|
|--------------------------------------------------------------------|
|--00-000-000-000-000-000-000-003----00-000-000-000-000-000-000-003--|
|--00-000-000-000-000-000-000-003----00-000-000-000-000-000-000-003--|
|--00-000-000-000-000-000-000-003----00-000-000-000-000-000-000-003--|
   ** *** *** *** *** *** *** **     ** *** *** *** *** *** *** **


0:37

|------------------------------------------------------------|
|------------------------------------------------------------|
|------------------------------------------------------------|
|--------------------------1------0-1~--0-1~--0-1~--0-0-1-1--|  
|--------------------0-0-1-1------0-1~--0-1~--0-1~--0-0-1-1--|
|--0-1~--0-1~--0-1~--0-0-1-1------0-1~--0-1~--0-1~--0-0-1-1--|
                    * * *                           * * * *

|------------------------------------------------------------|
|------------------------------------------------------------|
|------------------------------------------------------------|
|--0-1~--0-1~--0-1~--0-0-1-1---0-1~--0-1~--0-1~--0-0-1-1-----|
|--0-1~--0-1~--0-1~--0-0-1-1---0-1~--0-1~--0-1~--0-0-1-1-----|
|--0-1~--0-1~--0-1~--0-0-1-1---0-1~--0-1~--0-1~--0-0-1-1-----|
                     * * *                       * * * *


Verse 1
0:55

|--------------------------------------------------------------------|
|--------------------------------------------------------------------|
|--------------------------------------------------------------------|
|--00-000-000-000-000-000-000-003----00-000-000-000-000-000-000-003--|  x2
|--00-000-000-000-000-000-000-003----00-000-000-000-000-000-000-003--|
|--00-000-000-000-000-000-000-003----00-000-000-000-000-000-000-003--|
   ** *** *** *** *** *** *** **     ** *** *** *** *** *** *** **


Pre-Chorus
1:12

|-----------------------------------------|
|-----------------------------------------|
|-----------------------------------------|
|-----------------------------------------| x4
|-----------------------------000000------|
|--233332~--233332~--233332~--000000------|


Chorus
1:29

|---------------------------------------------------------------|
|---------------------------------------------------------------|
|---------------------------------------------------------------|
|----8----7----5-----8----7----5--------8----7----5----1--0--5--|
|----8----7----5-----8----7----5---5-7--8----7----5----1--0--5--|
|----8----7----5-----8----7----5---5-7--8----7----5----1--0--5--|


Post-Chorus
1:47

|------------------------------------------------------------|
|------------------------------------------------------------|
|------------------------------------------------------------|
|------------------------------------------------------------| x2
|--0-0-0-0--00---0-0-0-000-0--0-0-0-0-00---0-0-0-000---------|
|--0-0-0-0--00---0-0-0-000-0--0-0-0-0-00---0-0-0-000---------|
   * * * *  **   * * * *** *  * * * * **   * * * ***

2:05
|------------------------------------------------------------|
|------------------------------------------------------------|
|------------------------------------------------------------|
|--0-1~--0-1~--0-1~--0-0-1-1---0-1~--0-1~--0-1~--0-0-1-1-----| x2
|--0-1~--0-1~--0-1~--0-0-1-1---0-1~--0-1~--0-1~--0-0-1-1-----|
|--0-1~--0-1~--0-1~--0-0-1-1---0-1~--0-1~--0-1~--0-0-1-1-----|
                     * * * *                     * * * 

Verse 2
2:22

|--------------------------------------------------------------------|
|--------------------------------------------------------------------|
|--------------------------------------------------------------------|
|--00-000-000-000-000-000-000-003----00-000-000-000-000-000-000-003--|  x2
|--00-000-000-000-000-000-000-003----00-000-000-000-000-000-000-003--|
|--00-000-000-000-000-000-000-003----00-000-000-000-000-000-000-003--|
   ** *** *** *** *** *** *** **     ** *** *** *** *** *** *** **


Pre-Chorus
2:39

|-----------------------------------------|
|-----------------------------------------|
|-----------------------------------------|
|-----------------------------------------| x4
|-----------------------------000000------|
|--233332~--233332~--233332~--000000------|


(Pause)

Chorus
2:59

|----------------------------------------------------------------|
|----------------------------------------------------------------|
|----------------------------------------------------------------|
|--8----7----5----8----7----5--------8----7----5----1--0--5--5-7-|
|--8----7----5----8----7----5---5-7--8----7----5----1--0--5--5-7-|
|--8----7----5----8----7----5---5-7--8----7----5----1--0--5--5-7-|

|---------------------------------------------------------------|
|---------------------------------------------------------------|
|---------------------------------------------------------------|
|----8----7----5-----8----7----5--------8----7----5----1--0--5--|
|----8----7----5-----8----7----5---5-7--8----7----5----1--0--5--|
|----8----7----5-----8----7----5---5-7--8----7----5----1--0--5--|



Post-Chorus (Repeat until the end)
3:34

Guitar I
|------------------------------------------------------------|
|------------------------------------------------------------|
|------------------------------------------------------------|
|------------------------------------------------------------|
|--0-0-0-0--00---0-0-0-000-0--0-0-0-0-00---0-0-0-000---------|
|--0-0-0-0--00---0-0-0-000-0--0-0-0-0-00---0-0-0-000---------|
   * * * *  **   * * * *** *  * * * * **   * * * ***

Guitar II
|------------------------------------------------------------|
|------------------------------------------------------------|
|---14t---9t-10t------/14t----9t--10t--------6t----9t--7t----|
|------------------------------------------------------------|
|------------------------------------------------------------|
|------------------------------------------------------------|
            
Submit corrections

comments powered by Disqus
↑ Back to top | Pain Tabs for Don't Count Me Out. Lyrics for acoustic guitar and electric guitar. Tablatures and chords are parodies/interpretations of the original songs. You may use it for private study, scholarship, research or language learning purposes only