» » »

Pain, Don't Care Tabs (ver.1)

Artists:  A B C D E F G H I J K L M N O P Q R S T U V W X Y Z # 

Don't Care Tabs (ver.1)

Pain Tabs
 Rating:
4/5 (4 votes)
Don't Care lessons Tabs too difficult? Try these video lessons and learn fast
                ============================================================================

                        Don't Care
 
                           Pain

                      Cynic Paradise
============================================================================



Tuning: Drop A  (A E A D F# B)


 *  = Palm Mute
 @  = Pinched harmonic
 x  = muted
(5) = natural harmonic on said fret
 b  = bend string
 r  = return string



Intro
0:00


Guitar - uses maybe a light phase shifter
|-------------------------------------------------|
|-------------------------------------------------|
|-------------------------------------------------|
|---2--4-4--2--4-4--2--4-4--2--4-4--2-2-5-5-5-----|  x4 
|-------------------------------------------------|
|-------------------------------------------------|


There is another guitar fully muting the strings and strumming with 
a slight wah-wah effect as well.  It has a complementary rhythm.


0:11
|--------||-------------------------------------------------|
|--------||-------------------------------------------------|
|--------||-------------------------------------------------|
|--------||-------------------------------------------------|  x8
|--\\\---||---2--4-4--2--4-4--2--4-4--2--4-4--2-2-5-5-5-----|
|--\\\---||---2--4-4--2--4-4--2--4-4--2--4-4--2-2-5-5-5-----|


Verse 1
0:33

|-------------------------------------------------|
|-------------------------------------------------|
|-------------------------------------------------|
|---2--4-4--2--4-4--2--4-4--2--4-4--2-2-5-5-5-----|
|-------------------------------------------------|
|-------------------------------------------------|

|-------------------------------------------------|
|-------------------------------------------------|
|-------------------------------------------------|
|---2--4-4--2--4-4--2--4-4--2--4-4--2-2-5-5-5-----|
|---2--4-4--2--4-4--2--4-4--2--4-4--2-2-5-5-5-----|
|---2--4-4--2--4-4--2--4-4--2--4-4--2-2-5-5-5-----|

|-------------------------------------------------|
|-------------------------------------------------|
|-------------------------------------------------|
|---2--4-4--2--4-4--2--4-4--2--4-4--2-2-5-5-5-----|
|-------------------------------------------------|
|-------------------------------------------------|

|-------------------------------------------------|
|-------------------------------------------------|
|-------------------------------------------------|
|---2--4-4--2--4-4--2--4-4--2--4-4--2-2-5-5-5-----|
|---2--4-4--2--4-4--2--4-4--2--4-4--2-2-5-5-5-----|
|---2--4-4--2--4-4--2--4-4--2--4-4--2-2-5-5-5-----|


Chorus
0:46

Guitar I
|-----------------------------------------------------------|
|-----------------------------------------------------------|
|--4---2----------------------------------------------------|
|--4---2----------------------------------------------------|  x2
|--2---0----2--4-4--2--4-4--2--4-4--2--4-4--2-2-5-5-5-------|
|-----------2--4-4--2--4-4--2--4-4--2--4-4--2-2-5-5-5-------|

Guitar II
|-----------------------------------------------------------|
|-----------------------------------------------------------|
|--11~--9~---6-6-11-11-6-6-11-11-6-6-11-11-6-6-11-11--------|
|-----------------------------------------------------------| x2
|-----------------------------------------------------------|
|-----------------------------------------------------------|


Post-Chorus
0:57

|-------------------------------------------------|
|-------------------------------------------------|
|-------------------------------------------------|
|---2--4-4--2--4-4--2--4-4--2--4-4--2-2-5---------|
|---2--4-4--2--4-4--2--4-4--2--4-4--2-2-5---------|
|---2--4-4--2--4-4--2--4-4--2--4-4--2-2-5---------|

|-------------------------------------------------|
|-------------------------------------------------|
|-------------------------------------------------|
|---2--4-4--2--4-4--2--4-4--2--4-4--2-2-5-5-5-----|
|---2--4-4--2--4-4--2--4-4--2--4-4--2-2-5-5-5-----|
|---2--4-4--2--4-4--2--4-4--2--4-4--2-2-5-5-5-----|


Verse 2
1:02

|-------------------------------------------------|
|-------------------------------------------------|
|-------------------------------------------------|
|---2--4-4--2--4-4--2--4-4--2--4-4--2-2-5-5-5-----|
|-------------------------------------------------|
|-------------------------------------------------|

|-------------------------------------------------|
|-------------------------------------------------|
|-------------------------------------------------|
|---2--4-4--2--4-4--2--4-4--2--4-4--2-2-5-5-5-----|
|---2--4-4--2--4-4--2--4-4--2--4-4--2-2-5-5-5-----|
|---2--4-4--2--4-4--2--4-4--2--4-4--2-2-5-5-5-----|

|-------------------------------------------------|
|-------------------------------------------------|
|-------------------------------------------------|
|---2--4-4--2--4-4--2--4-4--2--4-4--2-2-5-5-5-----|
|-------------------------------------------------|
|-------------------------------------------------|

|-------------------------------------------------|
|-------------------------------------------------|
|-------------------------------------------------|
|---2--4-4--2--4-4--2--4-4--2--4-4--2-2-5-5-5-----|
|---2--4-4--2--4-4--2--4-4--2--4-4--2-2-5-5-5-----|
|---2--4-4--2--4-4--2--4-4--2--4-4--2-2-5-5-5-----|

Chorus
1:14

Guitar I
|-----------------------------------------------------------|
|-----------------------------------------------------------|
|--4---2----------------------------------------------------|
|--4---2----------------------------------------------------|  x4
|--2---0----2--4-4--2--4-4--2--4-4--2--4-4--2-2-5-5-5-------|
|-----------2--4-4--2--4-4--2--4-4--2--4-4--2-2-5-5-5-------|

Guitar II
|-----------------------------------------------------------|
|-----------------------------------------------------------|
|--11~--9~--6-6-11--11--6-6-11--11-6-6-11--11-6-6-11-11-----|
|-----------------------------------------------------------| x4
|-----------------------------------------------------------|
|-----------------------------------------------------------|


Bridge
1:36


|-------------------------------------------------------|
|-------------------------------------------------------|
|-------------------------------------------------------|
|--------2------2---2------3------3---3-----------------| x8
|-----2--2---2--2---2---0--3---3--3---3-----------------|
|-----2--2---2--2---2---0--3---3--3---3-----------------|
      *      *          *      *                                       


1:59
|---------------------------------------|
|---------------------------------------|
|---2~~---------------------------------|
|---2~~----------3-------5--------------|
|---0~~----------3-------5--------------|
|----------------3-------5--------------|


Verse Revisit
2:05

|-------------------------------------------------|
|-------------------------------------------------|
|-------------------------------------------------|
|---2--4-4--2--4-4--2--4-4--2--4-4--2-2-5-5-5-----|
|-------------------------------------------------|
|-------------------------------------------------|

|-------------------------------------------------|
|-------------------------------------------------|
|-------------------------------------------------|
|---2--4-4--2--4-4--2--4-4--2--4-4--2-2-5-5-5-----|
|---2--4-4--2--4-4--2--4-4--2--4-4--2-2-5-5-5-----|
|---2--4-4--2--4-4--2--4-4--2--4-4--2-2-5-5-5-----|

|-------------------------------------------------|
|-------------------------------------------------|
|-------------------------------------------------|
|---2--4-4--2--4-4--2--4-4--2--4-4--2-2-5-5-5-----|
|-------------------------------------------------|
|-------------------------------------------------|

|-------------------------------------------------|
|-------------------------------------------------|
|-------------------------------------------------|
|---2--4-4--2--4-4--2--4-4--2--4-4--2-2-5-5-5-----|
|---2--4-4--2--4-4--2--4-4--2--4-4--2-2-5-5-5-----|
|---2--4-4--2--4-4--2--4-4--2--4-4--2-2-5-5-5-----|


Chorus
2:16

Guitar I
|-----------------------------------------------------------|
|-----------------------------------------------------------|
|--4---2----------------------------------------------------|
|--4---2----------------------------------------------------|  x4
|--2---0----2--4-4--2--4-4--2--4-4--2--4-4--2-2-5-5-5-------|
|-----------2--4-4--2--4-4--2--4-4--2--4-4--2-2-5-5-5-------|

Guitar II
|-----------------------------------------------------------|
|-----------------------------------------------------------|
|--11~--9~--6-6-11--11--6-6-11--11-6-6-11--11-6-6-11-11-----|
|-----------------------------------------------------------| x4
|-----------------------------------------------------------|
|-----------------------------------------------------------|


Outro
2:39

|-------------------------------------------------|
|-------------------------------------------------|
|-------------------------------------------------|
|---2--4-4--2--4-4--2--4-4--2--4-4--2-2-5-5-5-----|
|-------------------------------------------------|
|-------------------------------------------------|

There is another guitar fully muting the strings and strumming with 
a slight wah-wah effect as well.  It has a complementary rhythm.
            
Submit corrections

comments powered by Disqus
↑ Back to top | Pain Tabs for Don't Care. Lyrics for acoustic guitar and electric guitar. Tablatures and chords are parodies/interpretations of the original songs. You may use it for private study, scholarship, research or language learning purposes only