» » »

Pagoda, I Do Tabs (ver.1)

Artists:  A B C D E F G H I J K L M N O P Q R S T U V W X Y Z # 

I Do Tabs (ver.1)

Pagoda Tabs
 Rating:
4/5 (4 votes)
I Do lessons Tabs too difficult? Try these video lessons and learn fast
1
                pagoda  -  i do

standard tuning

intro
g|--------------------|
d|--------------------|
a|--2-5-4xx--2-5-4xx--|
e|--0-3-2xx--0-3-2xx--|(actually bass line)
pm..................


verse
e|------------------------|
b|------------------------|
g|--------------------9b--|
d|--------------------9b--|
a|--2-5-4xx--2-5-4xx--7b--|
e|--0-3-2xx--0-3-2xx------|
pm..................

i still see her i a cheap hotel room
so this is what it's come to
i'd love to say, it tastes a different way
but that hasn't actually come true


pre-chorus
e|----------------------------|
b|----------------------------|
g|----------5-4----------5-4--|
d|----------5-4----------5-4--|
a|--22-5-4--3-2--22-5-4--3-2--|
e|--00-3-2-------00-3-2-------|
pm........       ......

this is so confusing, thoroughly amusing
my heart is bruising, only thoughts of you
and this is so degrading, i'm just waiting
just keep meditating, holy matrimony
i do

g|--------------------|
d|--------------------|
a|--2-5-4xx--2-5-4xx--|
e|--0-3-2xx--0-3-2xx--|
pm..................

i do, i do, i do...


chorus
e|-----------------------------------|
b|-----------------------------------|
g|--4-4-44-3-3-43--------------------|
d|--4-4-44-3-3-43--------------------|
a|--2-2-22-1-1-21--2-5-4xx--2-5-4xx--|
e|-----------------0-3-2xx--0-3-2xx--|
                 pm................

i'm just a child of the night
and i didn't ask to be not right


bridge
e|-------------------------------------------------------------------------|
b|-------------------------------------------------------------------------|
g|--7b-7b--4-5-4b----------------------------------------------------------|
d|----------------8b-8b--5b-5--4-5-4-------------4-5--8b-8--88-7-8---------|
a|------------------------------------7b-7b--777--------------------7b--7--|
e|-------------------------------------------------------------------------|


verse
g|--------------------|
d|--------------------|
a|--2-5-4xx--2-5-4xx--|
e|--0-3-2xx--0-3-2xx--|
pm..................

let's just say that it's that way
and it's been fun and it's all done
and it's okay, the world's a dark place
and i'm just a dead face in it's womb


pre-chorus

chorus

chorus2
                            ______________________________________
                            |     x3|
e|--------------------------|-------|-----------------------------|
b|--------------------------|-------|-----------------------------|
g|--4-4-44-3-3-43--7-7-77-6-|-6-76--|--67-67-67-67-67--8-9-10-11--|
d|--4-4-44-3-3-43--7-7-77-6-|-6-76--|--67-67-67-67-67--8-9-10-11--|
a|--2-2-22-1-1-21--5-5-55-4-|-4-54--|--45-45-45-45-45--6-7--8--9--|
e|--------------------------|-------|-----------------------------|

we're just the children of the night
we didn't ask to be not right


e|----------------------------|
b|----------------------------|
g|----------5-4----------5-4--|
d|----------5-4----------5-4--|
a|--22-5-4--3-2--22-5-4--3-2--|
e|--00-3-2-------00-3-2-------|
pm........       ......

not right, not right... alright
            
Submit corrections

comments powered by Disqus
↑ Back to top | Pagoda Tabs for I Do. Lyrics for acoustic guitar and electric guitar. 1 Tablatures and chords are parodies/interpretations of the original songs. You may use it for private study, scholarship, research or language learning purposes only