» » »

Fetus Tabs (ver.1)

Artists:  A B C D E F G H I J K L M N O P Q R S T U V W X Y Z # 

Fetus Tabs (ver.1)

Pagoda
Rating:
3/5 (1 vote)

Hard to play? Try these video lessons and learn fast.
                ----------------------------------------------------------------------------
----------------------------------------------------------------------------

Tuning:standard
   palm muted
e|--------------------------------------------------------------------|
B|--------------------------------------------------------------------|
G|--------------------------------------------------------------------|
D|-2222---------------------------------000000------------------------|
A|-2222---------------------------------222222------------------------|
E|-0000---------------------------------333333------------------------|
      i think of you floating in there        not a shed a thought a care
repeat till all our lungs and then change faster

when you get to i feind for the more
e|----------------------------------------------------------------------|
B|----------------------------------------------------------------------|
G|----------------------------------------------------------------------|
D|--2222------22222-----------------------------------------------------|
A|--2222------22222-----------------------------------------------------|
E|--1111------00000-----------------------------------------------------|
      hey yeah yeah
e|--------------------------------------------------------------------|
B|--------------------------------------------------------------------|
G|--------555------------555------------------------------------------|
D|--2-xx--555--xx--7-xx--555------------------------------------------|
A|--2-xx--333--xx--7-xx--333------------------------------------------|
E|--1-xx-------xx--5-xx-----------------------------------------------|

e|------------------------------------------------------------------------|
B|------------------------------------------------------------------------|
G|-------5-------5--------------------------------------------------------|
D|--30--5-0--7--5-0-------------------------------------------------------|
A|-----3-------3----------------------------------------------------------|
E|-1--------5-------------------------------------------------------------|
  never gave god


      hey yeah yeah
e|--------------------------------------------------------------------|
B|--------------------------------------------------------------------|
G|--------555------------555------------------------------------------|
D|--2-xx--555--xx--7-xx--555------------------------------------------|
A|--2-xx--333--xx--7-xx--333------------------------------------------|
E|--1-xx-------xx--5-xx-----------------------------------------------|

e|------0-----------------------------------------------------------|
B|------0-----------------------------------------------------------|
G|------1-----------------------------------------------------------|
D|-2----2-----------------------------------------------------------|
A|-2----2-----------------------------------------------------------|
E|-1----0-----------------------------------------------------------|
   he ye yee ye ye

e|------------------------------------------------------------------------|
B|------------------------------------------------------------------------|
G|-------5-------5--------------------------------------------------------|
D|--30--5-0--7--5-0-------------------------------------------------------|
A|-----3-------3----------------------------------------------------------|
E|-1--------5-------------------------------------------------------------|
  never gave god

hey yeah yeah
e|--------------------------------------------------------------------|
B|--------------------------------------------------------------------|
G|--------555------------555------------------------------------------|
D|--2-xx--555--xx--7-xx--555------------------------------------------|
A|--2-xx--333--xx--7-xx--333------------------------------------------|
E|--1-xx-------xx--5-xx-----------------------------------------------|


good song pagoda rewlz you can figure out the timing mess with it make it your own
peace
-SAVE DARFUR

| /  slide up
| \  slide down
| h  hammer-on
| p  pull-off
| ~  vibrato
| +  harmonic
| x  Mute note
===============================================================================
            
Hard to play? Try these video lessons and learn fast. | Correct




comments powered by Disqus
↑ Back to top | Tablatures and chords are parodies/interpretations of the original songs. You may use it for private study, scholarship, research or language learning purposes only