>
 >
Botus

Botus Guitar Tabs

Pagoda - Botus chords, tabs, tablatures, lyrics

Guitar lessons | Add/correct | Request | Top 50 tabs Artists:  A B C D E F G H I J K L M N O P Q R S T U V W X Y Z 0-9

Botus Guitar Tabs – Pagoda

CD, Sheet music, Poster

Do you like Botus? Share with your friends now
Tabs
       Botus                                       


                                                                 By Against-Mark
Michael Pitt - Guitar 1



     Q    E    E   E  E  E   E      Q    Q    E   E   E   E    8x            
E||------------------------------|-----------------------------||-----|-----|
B||------------------------------|-----------------------------||-----|-----|
G||----------------------5-------|----------------------------*||-----|-----|
D||-------2p--(0)-----5-----(0)--|-------5------------7---L---*||-----|-----|
A||----------------3-------------|---------------(7)-----(7)---||-----|-----|
E||--0---------------------------|--3---------5----------------||-----|-----|


                                Q    Q    Q       Q     
-----|-----|-----|-----|-----|-------------------------|
-----|-----|-----|-----|-----|-------------------------|
-----|-----|-----|-----|-----|-------------------------|
-----|-----|-----|-----|-----|--L----5----7br~----7----|
-----|-----|-----|-----|-----|--L----------------------|
-----|-----|-----|-----|-----|--L----------------------|


    Q    E    E   E  E  E   E      Q    Q    E   E   E   E    8x            
|-------------------------------|-----------------------------||-----|-----|
|-------------------------------|-----------------------------||-----|-----|
|*----------------------5-------|----------------------------*||-----|-----|
|*-------2p--(0)-----5-----(0)--|-------5------------7---L---*||-----|-----|
|-----------------3-------------|---------------(7)-----(7)---||-----|-----|
|---0---------------------------|--3---------5----------------||-----|-----|


                                Q    Q    Q       Q     
-----|-----|-----|-----|-----|-------------------------|
-----|-----|-----|-----|-----|-------------------------|
-----|-----|-----|-----|-----|-------------------------|
-----|-----|-----|-----|-----|--L----5----7br~----7----|
-----|-----|-----|-----|-----|--L----------------------|
-----|-----|-----|-----|-----|--L----------------------|


  E  E  E  E  E  E  E  E     E  E  E  E  E  E  E  E   
--------------------------|--------------------------|
--------------------------|--------------------------|
--------------------5-----|--------------------------|
--------2--------5-----5--|--------5-----------7-----|
-----2-----2--3-----------|-----5-----5-----7-----7--|
--0-----------------------|--3-----------5-----------|


  E  E  E  E  E  E  E  E     E  E  E  E  E  E  E  E   
--------------------------|--------------------------|
--------------------------|--------------------------|
--------------------5-----|--------------------------|
--------2--------5-----5--|--------5-----------7-----|
-----2-----2--3-----------|-----5-----5-----7-----7--|
--0-----------------------|--3-----------5-----------|


  E  E  E  E  E  E  E  E     E  E  E  E  E  E  E  E   
--------------------------|--------------------------|
--------------------------|--------------------------|
--------------------5-----|--------------------------|
--------2--------5-----5--|--------5-----------7-----|
-----2-----2--3-----------|-----5-----5-----7-----7--|
--0-----------------------|--3-----------5-----------|


  E  E  E  E  E  E  E  E     E  E  E  E  E  E  E  E   
--------------------------|--------------------------|
--------------------------|--------------------------|
--------------------5-----|--------------------------|
--------2--------5-----5--|--------5-----------7-----|
-----2-----2--3-----------|-----5-----5-----7-----7--|
--0-----------------------|--3-----------5-----------|


    Q    E    E   E  E  E   E      Q    Q    E   E   E   E    8x            
|-------------------------------|-----------------------------||-----|-----|
|-------------------------------|-----------------------------||-----|-----|
|*----------------------5-------|----------------------------*||-----|-----|
|*-------2p--(0)-----5-----(0)--|-------5------------7---L---*||-----|-----|
|-----------------3-------------|---------------(7)-----(7)---||-----|-----|
|---0---------------------------|--3---------5----------------||-----|-----|


                                Q    Q    Q       Q             
-----|-----|-----|-----|-----|-------------------------|-------|
-----|-----|-----|-----|-----|-------------------------|-------|
-----|-----|-----|-----|-----|-------------------------|-------|
-----|-----|-----|-----|-----|--L----5----7br~----7----|-------|
-----|-----|-----|-----|-----|--L----------------------|-------|
-----|-----|-----|-----|-----|--L----------------------|-------|


  Q    Q    Q       Q               Q    Q    Q       Q             
-------------------------|-------|-------------------------|-------|
-------------------------|-------|-------------------------|-------|
-------------------------|-------|-------------------------|-------|
--L----5----7br~----7----|-------|--L----5----7br~----7----|-------|
--L----------------------|-------|--L----------------------|-------|
--L----------------------|-------|--L----------------------|-------|


  Q    Q    Q       Q               Q    Q    Q       Q     
-------------------------|-------|-------------------------|
-------------------------|-------|-------------------------|
-------------------------|-------|-------------------------|
--L----5----7br~----7----|-------|--L----5----7br~----7----|
--L----------------------|-------|--L----------------------|
--L----------------------|-------|--L----------------------|


  W                  
-------------------||
-------------------||
-------------------||
--L----------------||
-------------------||
-------------------||











Michael Pitt Dist. - Guitar 2



                   8x  Q    E  E  Q    E  E     E  E  Q    Q      Q      
E||-------|--------||------------------------|--------------------------|
B||-------|--------||------------------------|--------------------------|
G||-------|-------*||-------------5----------|--------------------------|
D||-------|-------*||--2----x--2--5----x--5--|--x--5--------------------|
A||-------|--------||--2----x--2--3----x--5--|--x--5--------------------|
E||-------|--------||--0----x--0----------3--|--L--3--3----5br----5~----|


  Q    E  E  Q    E  E     E  E  Q    Q      Q        Q    E  E  Q    E  E   
------------------------|--------------------------|------------------------|
------------------------|--------------------------|------------------------|
-------------5----------|--------------------------|-------------5----------|
--2----x--2--5----x--5--|--x--5--------------------|--2----x--2--5----x--5--|
--2----x--2--3----x--5--|--x--5--------------------|--2----x--2--3----x--5--|
--0----x--0----------3--|--L--3--3----5br----L~----|--0----x--0----------3--|


  E  E  Q    Q      Q        Q    E  E  Q    E  E     Q    Q    Q       Q     
--------------------------|------------------------|-------------------------|
--------------------------|------------------------|-------------------------|
--------------------------|-------------5----------|-------------------------|
--x--5--------------------|--2----x--2--5----x--5--|--L----5----7br~----7----|
--x--5--------------------|--2----x--2--3----x--5--|--L----------------------|
--L--3--3----5br----5~----|--0----x--0----------3--|--L----------------------|


                  8x  Q    E  E  Q    E  E     E  E  Q    Q      Q      
|--------|--------||------------------------|--------------------------|
|--------|--------||------------------------|--------------------------|
|*-------|-------*||-------------5----------|--------------------------|
|*-------|-------*||--2----x--2--5----x--5--|--x--5--------------------|
|--------|--------||--2----x--2--3----x--5--|--x--5--------------------|
|--------|--------||--0----x--0----------3--|--L--3--3----5br----5~----|


  Q    E  E  Q    E  E     E  E  Q    Q      Q        Q    E  E  Q    E  E   
------------------------|--------------------------|------------------------|
------------------------|--------------------------|------------------------|
-------------5----------|--------------------------|-------------5----------|
--2----x--2--5----x--5--|--x--5--------------------|--2----x--2--5----x--5--|
--2----x--2--3----x--5--|--x--5--------------------|--2----x--2--3----x--5--|
--0----x--0----------3--|--L--3--3----5br----5~----|--0----x--0----------3--|


  E  E  Q    Q      Q        Q    E  E  Q    E  E     Q    Q    Q       Q     
--------------------------|------------------------|-------------------------|
--------------------------|------------------------|-------------------------|
--------------------------|-------------5----------|-------------------------|
--x--5--------------------|--2----x--2--5----x--5--|--L----5----7br~----7----|
--x--5--------------------|--2----x--2--3----x--5--|--L----------------------|
--L--3--3----5br----5~----|--0----x--0----------3--|--L----------------------|


  E  H        Q.        W                   W                 
---------------------|-------------------|-------------------|
---------------------|-------------------|-------------------|
---------------------|-------------------|-------------------|
--2--L--------L------|--L----------------|--L----------------|
--2--L--------L------|--L----------------|--L----------------|
--0--L--------L------|--L----------------|--L----------------|


  W                   W                   W                   W                 
-------------------|-------------------|-------------------|-------------------|
-------------------|-------------------|-------------------|-------------------|
-------------------|-------------------|-------------------|-------------------|
--L----------------|--L----------------|--L----------------|--L----------------|
--L----------------|--L----------------|--L----------------|--L----------------|
--L----------------|--L----------------|--L----------------|--L----------------|


  Q    E  E  Q       Q                                               8x
--------------------------||--------------------|--------------------||
--------------------------||--------------------|--------------------||
--------------------------||*-------------------|-------------------*||
--5----5--5--7br~----7----||*-------------------|-------------------*||
--L-------L--L-------L----||--------------------|--------------------||
----------L--L-------L----||--------------------|--------------------||


  Q    E  E  Q    E  E     E  E  Q    Q      Q        Q    E  E  Q    E  E   
------------------------|--------------------------|------------------------|
------------------------|--------------------------|------------------------|
-------------5----------|--------------------------|-------------5----------|
--2----x--2--5----x--5--|--x--5--------------------|--2----x--2--5----x--5--|
--2----x--2--3----x--5--|--x--5--------------------|--2----x--2--3----x--5--|
--0----x--0----------3--|--L--3--3----5br----5~----|--0----x--0----------3--|


  E  E  Q    Q      Q        Q    E  E  Q    E  E     E  E  Q    Q      Q      
--------------------------|------------------------|--------------------------|
--------------------------|------------------------|--------------------------|
--------------------------|-------------5----------|--------------------------|
--x--5--------------------|--2----x--2--5----x--5--|--x--5--------------------|
--x--5--------------------|--2----x--2--3----x--5--|--x--5--------------------|
--L--3--3----5br----5~----|--0----x--0----------3--|--L--3--3----5br----5~----|


  Q    E  E  Q    E  E     Q    Q    Q       Q       Q    E  E  Q    E  E   
------------------------|-------------------------|------------------------|
------------------------|-------------------------|------------------------|
-------------5----------|-------------------------|-------------5----------|
--2----x--2--5----x--5--|--L----5----7br~----7----|--2----x--2--5----x--5--|
--2----x--2--3----x--5--|--L----------------------|--2----x--2--3----x--5--|
--0----x--0----------3--|--L----------------------|--0----x--0----------3--|


  Q    Q    Q       Q       Q    E  E  Q    E  E     Q    Q    Q       Q     
-------------------------|------------------------|-------------------------|
-------------------------|------------------------|-------------------------|
-------------------------|-------------5----------|-------------------------|
--L----5----7br~----7----|--2----x--2--5----x--5--|--L----5----7br~----7----|
--L----------------------|--2----x--2--3----x--5--|--L----------------------|
--L----------------------|--0----x--0----------3--|--L----------------------|


  Q    E  E  Q    E  E     Q    Q    Q       Q       Q    E  E  Q    E  E   
------------------------|-------------------------|------------------------|
------------------------|-------------------------|------------------------|
-------------5----------|-------------------------|-------------5----------|
--2----x--2--5----x--5--|--L----5----7br~----7----|--2----x--2--5----x--5--|
--2----x--2--3----x--5--|--L----------------------|--2----x--2--3----x--5--|
--0----x--0----------3--|--L----------------------|--0----x--0----------3--|


  Q    Q    Q       Q       W                  
-------------------------|-------------------||
-------------------------|-------------------||
-------------------------|-------------------||
--L----5----7br~----7----|--L----------------||
--L----------------------|-------------------||
--L----------------------|-------------------||


Tablature Legend
----------------
L - tied note
x - dead note
g - grace note
(n) - ghost note





Comments


Popular Pagoda tabs & chords
Amego Bass Tabs
Death To Birth Chords
Alone Tabs
Amego Tabs
Death To Birth Tabs
Death To Birth 1 Tabs
Fetus Tabs
Happy Song Intro Tabs
I Do Tabs
Never Was Disintegrate Tabs


Song lyrics



↑ Back to top | Tablatures and chords are parodies/interpretations of the original songs. You may use it for private study, scholarship, research or language learning purposes only
© 2014 AZChords.com Contact us | Privacy policy | DMCA | Add/correct tabs | Request tabs | Top 50 tabs