» » »

Pagoda, Alone Tabs (ver.1)

Artists:  A B C D E F G H I J K L M N O P Q R S T U V W X Y Z # 

Alone Tabs (ver.1)

Pagoda Tabs
 Rating:
4.3/5 (6 votes)
Alone lessons Tabs too difficult? Try these video lessons and learn fast
                ----------------------------------------------------------------------------
                             "Alone" - Pagoda
----------------------------------------------------------------------------

Tuning:Standard




-Intro- (acoustic)
e|-------------------------------------------------------------------------|
B|------------------------------------------------------------1------1-----|
G|---0--------0---------0--------0--------0--------0------------0------0---|
D|--2--2-----2--2-----2---2----2---2----2---2----2---2------2------2-------|
A|-2-------2--------3--------3--------2--------2----------3-------3--------|
E|-------------------------------------------------------------------------|
     play 3 times
  




-Chorus- (distortion)
e|------------------------------------|----|
B|---------------------------2--------|--2-|
G|---------5-----------------2--------|--2-|
D|-2-------5--------2--------0--------|--0-|
A|-2-------3--------2-----------------|----|
E|-0----------------0-----------------|----|
  (slightly bend each chord after playing)
         
   play first part of chorus 8 times





-Verse-  (slight distortion)
e|----------------------------------------|
B|-----------------2----------------------|
G|---------5-------2----------------------|
D|-2-------5-------0----(feedback)--------| play until chorus
A|-2-------3------------------------------|
E|-0--------------------------------------|
  
during the verse, the guitar turns the volume up and down while hitting the chords...







-2nd Chorus-  (Distortion)
e|-----------------------------------------------|
B|------------------------------2----------------|
G|----------5-------------------2----------------|
D|-2--------5---------2---------0----------------| play 4 times
A|-2--------3---------2--------------------------|
E|-0------------------0--------------------------|
    (slightly bend each chord after playing)






-2nd Verse- (slight distortion)
e|------------------------------------------------|
B|------------------------------------------------|
G|------------------------------------------------|
D|--(Random notes/pickslides/fidgiting)-----------|play until chorus
A|--(Random notes/fidgiting on cello)--------------|
E|------------------------------------------------|






-3rd Chorus- (distortion)
e|-----------------------------------------------|
B|------------------------------2----------------|
G|----------5-------------------2----------------|
D|-2--------5---------2---------0----------------| play 4 times
A|-2--------3---------2--------------------------|
E|-0------------------0--------------------------|
      slightly bend each chord after playing
               
       (hold last chord on fourth time)





-Outro-  (distortion)
e|----------------------------------------------------|
B|----------------------------------------------------|
G|---( Random strumming, pickslides..with feed back )-|
D|----------------------------------------------------|
A|---( mindless doodling on cello )-------------------|
E|----------------------------------------------------|





| /  slide up
| \  slide down
| h  hammer-on
| p  pull-off
| ~  vibrato
| +  harmonic
| x  Mute note
            
Submit corrections

comments powered by Disqus
↑ Back to top | Pagoda Tabs for Alone. Lyrics for acoustic guitar and electric guitar. Tablatures and chords are parodies/interpretations of the original songs. You may use it for private study, scholarship, research or language learning purposes only