» » »

Air Pollution Tabs (ver.1)

Artists:  A B C D E F G H I J K L M N O P Q R S T U V W X Y Z # 

Air Pollution Tabs (ver.1)

Page France
Rating:
0/5 (0 votes)

Hard to play? Try these video lessons and learn fast.
                You can play this all on one guitar pretty easily as well, but for the sake of isolating 
different parts, I separated it into 2 guitars.

The two guitar parts lined up in time.
E|-------------------|-------------------|---------------------|-------------------|
B|-------------------|-------------------|---------------------|-------------------|
G|-------------------|-------------------|---------------------|-------------------|
D|-------------------|-------------------|---------------------|-------------------|
A|---5-------5-------|---5-------5-------|---8--------8--------|---6-------6-------|
E|---6-------6-------|---8-------8-------|---10-------10-------|---8-------8-------|
====================================================================================
E|-------------------|-------------------|---------------------|-------------------|
B|-------------------|-------------------|---------------------|-------------------|
G|-------------------|-------------------|---------------------|-------------------|
D|-------0-------0---|-------0-------0---|--------0--------0---|-------0-------0---|
A|-------------------|-------------------|---------------------|-------------------|
E|---6-------6-------|---8-------8-------|---10-------10-------|---8-------8-------|


The second part runs throughout the whole song.
The first part changes to this after it runs through twice and sticks with this 
for most of the song.

E|------------|------------|--------------|------------|
B|------------|------------|--------------|------------|
G|------------|------------|--------------|------------|
D|------------|------------|--------------|------------|
A|---5----5---|---6----6---|---8-----8----|---6----6---|
E|---6----6---|---8----8---|---10----10---|---8----8---|

Then there's that little hammer-on fill.

E|-------------|
B|-------------|
G|-------------|
D|--8h10p8-----|
A|-------------|
E|-------------|
            
Hard to play? Try these video lessons and learn fast. | Correct




comments powered by Disqus
↑ Back to top | Tablatures and chords are parodies/interpretations of the original songs. You may use it for private study, scholarship, research or language learning purposes only