» » »

No Quarter Tabs (ver.2)

Artists:  A B C D E F G H I J K L M N O P Q R S T U V W X Y Z # 

No Quarter Tabs (ver.2)

Page And Plant
Rating:
2/5 (4 votes)

Hard to play? Try these video lessons and learn fast.
                No Quarter
Page and Plant

song goes like that:

4x basic fiff
uneven line riff | basic riff
even line riff | basic riff
uneven line riff | basic riff
even line riff | basic riff
uneven line riff | bridge
8x chorus


basic riff                   (after last one)

e||--0-----0h1p0----------|--5---------|
B||--3---3-------3-5-6-3--|--3---------|
G||--2-2-----------0-0-0--|------------|
D||--0--------------------|------------|
A||-----------------------|------------|
E||-----------------------|------------|

uneven line riff

e||---------------------|
B||---------------------|
G||--7-7-7-7-9-9-10-10--|
D||--0-0-0-0-0-0-0--0---|
A||--5-5-5-5------------|
E||---------------------|

even line riff

e||---------------------|
B||---------------------|
G||--5-5-5-5-7-0-2-2----|
D||--0-0-0-0-0-0-0-0----|
A||--5-5-5-5-5----------|
E||---------------------|

bridge

e||--------------------------------------------------------------------|
B||--------------------------------------------------------------------|
G||--7-7-7-7-9-9-10-10-12-8-8-7/8-8-8-8-7/8-8-7/8-8-8-8-8/13-13-12/13--|
D||--0-0-0-0-0-0-0--0--0--8-8-7/8-8-8-8-7/8-8-7/8-8-8-8-8/13-13-12/13--|
A||-----------------------6-6-5/6-6-6-6-5/6-6-5/6-6-6-6-6/11-11-10/11--|
E||--------------------------------------------------------------------|

e||--------------------|
B||--------------------|
G||--13-13-13-12-10-7--|
D||--13-13-13-12-10-7--|
A||--11-11-11-10-8--5--|
E||--------------------|

chorus

e||--5-5/6/5-5-5--5-5/6/5-5-5----------------------|
B||--5-5/6/5-5-5--5-5/6/5-5-5----------------------|
G||--7-7/8/7-7-7--7-7/8/7-7-7----------------------|
D||--7-7/8/7-7-7--7-7/8/7-7-7--3/5-5-5--3/5-5-3-2--|
A||--5-5/6/5-5-5--5-5/6/5-5-5--3/5-5-5--3/5-5-3-2--|
E||--5-5/6/5-5-5--5-5/6/5-5-5--1/3-3-3--1/3-3-1-0--|
            
Hard to play? Try these video lessons and learn fast. | Correct




comments powered by Disqus
↑ Back to top | Tablatures and chords are parodies/interpretations of the original songs. You may use it for private study, scholarship, research or language learning purposes only