» » »

Page And Plant, No Quarter Tabs (ver.1)

Artists:  A B C D E F G H I J K L M N O P Q R S T U V W X Y Z # 

No Quarter Tabs (ver.1)

Page And Plant Tabs
 Rating:
4/5 (6 votes)
No Quarter lessons Tabs too difficult? Try these video lessons and learn fast
1
                Band: Page and Plant (Led Zeppelin)
Tuning: DADGAD (low to high) on a 12-string acoustic.



| /   slide up
| \   slide down
| h   hammer-on
| p   pull-off
| ~   vibrato
| +   harmonic
| x   mute note
| *   asterisk

D|-12+----2-2h3p2-0--2-0-3--0------2-2h3p2-0--2-0-3--0----| *All the 0's  
A|-12+----0-0--------0-0-0--0------0-0--------0-0-0--0----| on the low D  
G|-12+----2-2--------0-0-0--0------2-2--------0-0-0--0----| string can also
D|-12+------0--------0---0--0--------0--------0---0--0----| be played on  
A|-12+---------------3---5--------------------3---5-------| the 12th fret 
D|-12+---------------3---5------0*------------3---5-------| harmonic
                                

D|----2-2h3p2-0--2-0-3--0------2-2h3p2-0--2-0-3--0----|
A|----0-0--------0-0-0--0------0-0--------0-0-0--0----|
G|----2-2--------0-0-0--0------2-2--------0-0-0--0----|
D|------0--------0---0--0--------0--------0---0--0----|
A|---------------3---5--------------------3---5-------|
D|-0-------------3---5------0-------------3---5-------|

---

D|-----------------------------2-2h3p2-0--2-0-3--0--|
A|-----0--3--3--5--5--7--7-----0-0--------0-0-0--0--|
G|-----2--5--5--7--7--9--9-----2-2--------0-0-0--0--|
D|-----0--0--0--0--0--0--0-------0--------0---0--0--|
A|-----2--5--5--7--7--9--9-------0--------3---5-----|
D|--0-----------------------0-------------3---5-----|

D|-------------------------2-2h3p2-0--2-0-3--0----|
A|-----3--3--3--5----------0-0--------0-0-0--0----|
G|-----5--5--5--7----------2-2--------0-0-0--0----|
D|-----0--0--0--0------------0--------0---0--0----|
A|-----5--5--5--7------------0--------3---5-------|
D|--0-------------5-----0-------------3---5-------|

---

D|----------------------------------------------------------------|
A|-----0--3--3--5-5--5/7------------------------------------------|
G|-----2--5--5--7-7--7/8------------------------------------------|
D|-----0--0--0--0-0--0-0------------------------------------------|
A|-----2--5--5--7-7--7/8-----1---0---1---0---1---1/6--0--6--0--6--|
D|--0------------------------1---0---1---0---1---1/6--0--6--0--6--|

D|----------------------------------------------------------------|
A|---------------------------------------5-5-6-5--5-6-5--5-6-5----|
G|---------------------------------------7-7/8\7--7/8\7--7/8\7----|
D|---------------------------------------0-0-0-0--0-0-0--0-0-0----|
A|--6--6----6--6----5-----3--2--2-0------7-7/8\7--7/8\7--7/8\7----|
D|--6--6----6--6----5-----3--2--2-0-------------------------------|

D|----------------------------------------------------------------|
A|---------------------------------------5-5-6-5--5-6-5--5-6-5----|
G|---------------------------------------7-7/8\7--7/8\7--7/8\7----|
D|---------------------------------------0-0-0-0--0-0-0--0-0-0----|
A|--6--6----6--6----5-----3--2--2-0------7-7/8\7--7/8\7--7/8\7----|
D|--6--6----6--6----5-----3--2--2-0-------------------------------|

---

D|-12+----2-2h3p2-0--2-0-3--0------2-2h3p2-0--2-0-3--0----|
A|-12+----0-0--------0-0-0--0------0-0--------0-0-0--0----|
G|-12+----2-2--------0-0-0--0------2-2--------0-0-0--0----|
D|-12+------0--------0---0--0--------0--------0---0--0----|
A|-12+---------------3---5--------------------3---5-------|
D|-12+---------------3---5------0-------------3---5-------|

                                                       *
D|-----2-2h3p2-0--2-0-3--0-----2-2h3p2-0--2-0-3--0----12+|
A|-----0-0--------0-0-0--0-----0-0--------0-0-0--0----12+|  *Note: Ending
G|-----2-2--------0-0-0--0-----2-2--------0-0-0--0----12+| harmonic can be
D|-------0--------0---0--0-------0--------0---0--0----12+| played on the
A|----------------3---5-------------------3---5-------12+| 5th, 7th, or
D|--0-------------3---5-----0-------------3---5-------12+| 12th frets. 
            
Submit corrections

comments powered by Disqus
↑ Back to top | Page And Plant Tabs for No Quarter. Lyrics for acoustic guitar and electric guitar. 1 Tablatures and chords are parodies/interpretations of the original songs. You may use it for private study, scholarship, research or language learning purposes only