>
 >
Most High

Most High Guitar Tabs

Page And Plant - Most High chords, tabs, tablatures, lyrics

Guitar lessons | Add/correct | Request | Top 50 tabs Artists:  A B C D E F G H I J K L M N O P Q R S T U V W X Y Z 0-9

Most High Guitar Tabs – Page And Plant

CD, Sheet music, Poster

Do you like Most High? Share with your friends now
Tabs
Words and music by Page, Plant, Jones and Lee

all tuned C G E G C E
Gtr I, II - 'Jimmy Page electric w/light dist.'
Gtr III - 'Hurdy Gurdy arr. for guitar'
Gtr IV - 'Arabic inst. arr. for gtr.'

Intro          Intro /  Verse 1
  Q=87
 4/4
  Gtr I
                 ~~~~~~~~~~~~~~~~~~~~~~~~~~~~~~~~~~~~~~~~~~~~~~~~~~~~~~~~
  Wx5            S E S E S S +S  E S T T S E   S E S E S S +S  E S S S E
|------------||--0-0-0-0-0-0-(0)-0-0-------0-|-0-0-0-0-0-0-(0)-0-0-0---0--|
|------------||o-0-0-0-0-0-0-(0)-0-0-------0-|-0-0-0-0-0-0-(0)-0-0-0-0-0--|
|-percussion-||--5-5-5-5-5-5-(5)-5-5-4h5p4-0-|-0-0-0-0-0-0-(0)-0-0-0-4-5--|
|------------||--0-0-0-0-0-0-(0)-0-0-0-----0-|-0-0-0-0-0-0-(0)-0-0-0-0-0--|
|------------||o-5-5-5-5-5-5-(5)-5-5-5-----5-|-5-5-5-5-5-5-(5)-5-5-5-5-5--|
|------------||--0-0-0-0-0-0-(0)-0-----------|---------0-0-(0)------------|
              |-Rhy Fig 1

  ~~~~~~~~~~~~~~~~~~~~~~~~~~~~~~~~~~~~~~~~~~~~~~~~~~~~~~~~~~
  S E S E S S +S  E S T T S E   S E S +E  S S S E S S S S S
|-0-0-0-0-0-0-(0)-0-0---------|-0-0-0-(0)---0-0-0-0-0-0-0-0--|
|-0-0-0-0-0-0-(0)-0-0-------0-|-0-0-0-(0)---0-0-0-0-0-0-0-0--|
|-5-5-5-5-5-5-(5)-5-5-4h5p4-0-|-0-0-0-(0)---0-0-0-0-0-4-5-5--|
|-0-0-0-0-0-0-(0)-0-0-0-----0-|-0-0-0-(0)---0-0-0-0-0-0-0-0--|
|-5-5-5-5-5-5-(5)-5-5-5-----5-|-5-5-5-(5)-5-5-5-5-5-5-5-5-5--|
|-------0-0-------------------|-0---------0------------------|


  ~~~~~~~~~~~~~~~~~~~~~~~~~~~~~~~~~~~~~~~~~~~~~~~~~~~~~~~~~~~~~~
  S E S E S S +S  E S T T S S S   S E S E S S +S  E S T T S S S
|---0-0-------------0-------0-0-|-0-0-0-------------------------|
|-0-0-0-----------0-0-------0-0-|-0-0-0---------------------0-0-|
|-5-3-3-3-3-3-(3)-3-3-2h3p2-0-0-|-0-3-3-3-3-3-(3)-3-3-2h3p2-0-0-|
|-0-0---------------------------|-0-----------------------------|
|-5-3---3-3-3-(3)-3-3-3-----3-3-|-3-3-3-3-3-3-(3)-3-3-3-----3-3-|
|-------------------------------|-------------------------------|


  ~~~~~~~~~~~~~~~~~~~~~~~~~~~~~~~~~~~~~~~~~~~~~~~~~~~~~~~~
  S E S E S S +S  E S T T S E   S E S E S S +S  E S S S E
|---0-0-0-0-0-(0)-0-0-0-------|-0-0-0-0-x-0-(0)-0-0-0-0-0--||
|-0-0-0-0-0-0-(0)-0-0-0-----0-|-0-0-0-0-x-0-(0)-0-0-0-0-0-o||
|-3S5-5-5-5-5-(5)-5-5-4h5p4-0-|-0-0-0-0-x-0-(0)-0-0-0-4-5--||
|---0-0-0-0-0-(0)-0-0-0-----0-|-0-0-0-0-x-0-(0)-0-0-0-0-0--||
|-3S5-5-5-5-5-(5)-5-5-5-----5-|-5-5-5-5-x-5-(5)-5-5-5-5-5-o||
|---------0-0-(0)-0---0-----0-|---------x------------------||
                                             end Rhy Fig 1-|

 Verse 2
  Gtr I w/Rhy Fig 1

  Gtr III
  W                             H            E    T T T  T S S E
|-----------------------------|----------------------------------|
|-----------------------------|-------------------0h2p0--------0-|
|-----------------------------|-------------------------h4-2-4---|
|-----------------------------|----------------------------------|
|-----------------------------|----------------------------------|
|-----------------------------|----------------------------------|



  W                             H             E   T T T  T S S S S
|-----------------------------|------------------------------------|
|-----------------------------|-------------------0h2p0--------0---|
|-----------------------------|-------------------------h4-2-4---0-|
|-----------------------------|------------------------------------|
|-----------------------------|------------------------------------|
|-----------------------------|------------------------------------|



                                                              |-3-|
  W                               H            Q      E.      T T T
|-------------------------------|------------------------------------|
|-------------------------------|------------------------------------|
|-------------------------------|-----------------------------0h2h3--|
|-------------------------------|------------------------------------|
|-------------------------------|------------------------------------|
|-------------------------------|------------------------------------|



  Q     E T T T  T  Q      +S    S T T T  T
|-------------------------------------------|
|---------0h2p0-----0p-----(0)-----0h2p0----|
|---------------h4-----------------------h4-|
|-------------------------------------------|
|-------------------------------------------|
|-------------------------------------------|



   E.   S T T T  T E     S  T T S  S S S E
|-------------------------------------------||
|-h0------0h2p0----0p-------0h2p0--------0--||
|---------------h4----------------h4-2-4----||
|-------------------------------------------||
|-------------------------------------------||
|-------------------------------------------||


 Chorus
  Ab                   C5
  Gtr II
   W          +H     E S S  S  S S S   S E   S E S S +E    S S E     E
   |           |       | |  |  | | |   | |   | | | |  |    | | |     |
   /           /       / /  /  / / /   / /   / / / /  /    / / /     /

  Gtr I
   W          +H.           E.     S   E   S S E E   +S  E   S T T S E
|-^8--------|-(8)--------------------|-----0-0-0------------------------|
|-^8--------|-(8)--------------------|-----0-0-0-0---(0)-0---0-0-----0--|
|-^8--------|-(8)--------------------|-----0-0-0-0---(0)-0---0-0h5p4-0--|
|-^8--------|-(8)--------------------|-----0-0-0-0---(0)-0---0-0-----0--|
|-^8--------|-(8)--------------------|-----5-5-5-5---(5)-5---5-5-----5--|
|-^8--------|-(8)----------12\-------|-0--------------------------------|
|-Rhy Fig 2 (both Gtrs)

  Gtr II
  S E S E S S +S  S S S S S E
|-0-0-0-0-0-0-(0)-0-0-0-0---0-|
|-0-0-0-0-0-0-(0)-0-0-0-0-0-0-|
|-0-0-0-0-0-0-(0)-0-0-0-0-4-5-|
|-0-0-0-0-0-0-(0)-0-0-0-0-0-0-|
|-5-5-5-5-5-5-(5)-5-5-5-5-5-5-|
|-----------------------------|
|
| Gtr I
| S E S E S S +S  E   S S S E
|-----------0-(0)-----0-0-----|
|-0-0-0-0-0-0-(0)-0---0-0-----|
|-0-0-0-0-0-0-(0)-0---0-0-4-5-|
|-0-0-0-0-0-0-(0)-0---0-0-----|
|-5-5-5-5-5-5-(5)-5---5-5-----|
|-----------------------------|


   S E S Q  Q  E S S    Q   Q  +S  S S S  S  S S S
|--0-0-0-0--0--0-0-0-|--0---0--(0)-----------------|
|--0-0-0-0--0--0-0-0-|--0---0--(0)-----------------|
|--x-x-x-x--x--x-x-x-|--x---x--(x)---0-0--0--0-0-0-|
|--9-9-9-9--9--9-9-9-|--9---9--(9)-------------0-0-|
|--9-9-9-9--9--9-9-9-|--9---9--(9)-----------------|
|--9-9-9-9--9--9-9-9-|--9---9--(9)-----------------|
|
|  W                   +H.                E.     S
|-^0-----------------|-(0)-------------------------|
|-^0-----------------|-(0)-------------------------|
|-^x-----------------|-(x)-------------------------|
|-^9-----------------|-(9)---------------10\-------|
|-^9-----------------|-(9)---------------10\-------|
|-^9-----------------|-(9)---------------10\-------|


  S  E S   E   S S +E    S S E     E
|-0--0-0---0---0-0-(0)-------------------|
|-0--0-0---0---0-0-(0)-------------------|
|-0--0-0---0---0-0-(0)---0-0-0-----0-----|
|-0--0-0---0---0-0-(0)---0-0-0-----0-----|
|-5--5-5---5---5-5-(5)---5-5-5-----5-----|
|----------------------------------------|
|
| S  E S   S S S S +S  S S S T T S E
|-0--0-----------------------------------|
|-0--0-0---0-0-0-0-(0)-0-0-0-------0-----|
|-0--0-0---0-0-0-0-(0)-0-0-0-4h5p4-0-----|
|-0--0-0---0-0-0-0-(0)-0-0-0-0-----0-----|
|-5--5-5---5-5-5-5-(5)-5-5-5-5-----5-----|
|-0--0-----------------------------------|
|
| Gtr III
| E.   T T S S S S  S  S S S E     S T T
|----------------------------------------|
|----------------------------------------|
|------0h2-4-5-4-2--4--2-0---0-----------|
|--------------------------5---------5h7-|
|----------------------------------------|
|----------------------------------------|


  Q           E   S S +S  S E   E   E    |
|-0-----------0---0-0-(0)-0-0-----------||
|-0-----------0---0-0-(0)-0-0-----------||
|-0-----------0---0-0-(0)-0-0---0-------||
|-0-----------0---0-0-(0)-0-0---0-------||
|-5-----------5---5-5-(5)-5-5---5-------||
|---------------------------------------||
|
| S E     S   E   S S +S  E   S S S S S
|-0-0-----0---0---0-0-(0)-0---0-0---0-0-||
|-0-0-----0---0---0-0-(0)-0---0-0-0-0-0-||
|-0-0-----0---0---0-0-(0)-0---0-0-4-5-5-||



|-0-0-----0---0---0-0-(0)-0---0-0-0-0-0-||
|-5-5-----5---5---5-5-(5)-5---5-5-5-5-5-||
|-----------------0-0-(0)---------------||
|                          end Rhy Fig 2-|
|
| S S T T T T S S S S  S  S S S S S S S
|---------------------------------------||
|---------------------------------------||
|-4-5-4h5p4-2-4-2-0---------0-2-0-------||
|-------------------5--4--5-------5-3-2-||
|---------------------------------------||
|---------------------------------------||


 Verse 3
  Gtr I w/Rhy Fig 1
  Gtr III
  Q     Q      H                Q     E.   T T  S  S T T T T S S E
|-----------------------------|------------------------------------|
|-----------------------------|-----------------0----------------0-|
|-----------------------------|------------2h4-----3-2h3p2p0-2-3---|
|-----------------------------|------------------------------------|
|-3---------------------------|------------------------------------|
|-----------------------------|------------------------------------|


                                            |-3-|
  W                             Q      E.   T T T S S T T T  T S S S S
|-----------------------------|----------------------------------------|
|-----------------------------|-------------------0---0h2p0----0---0-2-|
|-----------------------------|-------------0h2h4---0-------h4---0-----|
|-----------------------------|----------------------------------------|
|-----------------------------|----------------------------------------|
|-----------------------------|----------------------------------------|



                                                              |-3-|
  Q     Q      H                  H            Q      E.      T T T
|-------------------------------|------------------------------------|
|-0-----------------------------|------------------------------------|
|-------------------------------|-----------------------------0h2h3--|
|-------------------------------|------------------------------------|
|-------------------------------|------------------------------------|
|-------------------------------|------------------------------------|



  S S S S a S S S S  S  S S S S   S S T T
|-----------------------------------------|
|-0---0-2-2p0---0----0----0---------0-----|
|---3---------0---3-----3---3-2---3---0h3-|
|-----------------------------------------|
|-----------------------------------------|
|-----------------------------------------|



  S S T T T  T S S S S  S  S S S S S S S
|-----------------------------------------||
|-0---0h2p0----0---0----0------------0----||
|---0-------h3---0---3-----3-2-0-2-3---0--||
|-----------------------------------------||
|-----------------------------------------||
|-----------------------------------------||


 Chorus
  w/Rhy Fig 2
  Gtr III
   W           W                       H              E.     T T Q
|-----------|------------------------|-----------------------------------|
|-----------|------------------------|---------------------------0-------|
|-----------|------------------------|-----------------------2h4---------|
|-----------|------------------------|-----------------------------------|
|-----------|------------------------|-----------------------------------|
|-----------|------------------------|-----------------------------------|



  Gtr III
  +E.   T T S T T S T T  S  S T T T  T S S S S
|----------------------------------------------|
|-(0)-------0-----0------0--2-0h2p0----0-------|
|-------2h4---2h4---2h4-------------h4---3-2-0-|
|----------------------------------------------|
|----------------------------------------------|
|----------------------------------------------|



   W                    W
|--------------------|-----------------------------|
|--------------------|-----------------------------|
|--------------------|-----------------------------|
|--------------------|-----------------------------|
|--------------------|-----------------------------|
|--------------------|-----------------------------|



  E.   T T S S T T T  T  S  T T S S T T T T S T T
|-------------------------------------------------|
|-------------------------------------------------|
|------0h2h3-5-4p2p0-----0--0h2-3-5-4p2p0---0-0h2h|
|--------------------h5-------------------5-------|
|-------------------------------------------------|
|-------------------------------------------------|



  S S S S S S S S  S  S S S E   S S
|-----------------------------------||
|---------------------------------5-||
|-3-5-4-2-0---0-----------------5---||
|-----------5---5--4--2-4-2-0-------||
|-----------------------------------||
|-----------------------------------||


 Hurdy Gurdy Solo
  Gtr I w/Rhy Fig 1

  Gtr III
                    |-3-|                                   |-3-|
  S S S S E S S  S  T T T S S S   S S S   S S S S E S S  S  T T T S S S S S S
|-3-------------------------------------|-3------------------------------------|
|-----5---5-5-5--3--5p3p2---2---------5-|-----5---5-5-5--4--5p4p2---2-------5--|
|---5---------------------5---5---4-5---|---5---------------------5---5---5----|
|---------------------------------------|--------------------------------------|
|---------------------------------------|--------------------------------------|
|---------------------------------------|--------------------------------------|



                    |-3-|                                   |-3-|
  S S S S E S S  S  T T T S S S   S S S   S S S S  E  S S S T T T S S S S S S
|-3-------------------------------------|-3------------------------------------|
|-----5---5-5-5--3--5p3p2---2---------5-|-----5----5--5-5-3-5p3p2---2-------5--|
|---5---------------------5---5-----5---|---5---------------------5---5-4-5----|
|---------------------------------------|--------------------------------------|
|---------------------------------------|--------------------------------------|
|---------------------------------------|--------------------------------------|



                    |-3-|
  S S S S E S S  S  T T T S S S   S S S
|-3-------------------------------------|
|-----5---5-5-5--4--5p4p2---2---------5-|
|---5---------------------5---5-----5---|
|---------------------------------------|
|---------------------------------------|
|---------------------------------------|



                    |-3-|
  S S S S E S S  S  T T T S S E     S S
|-3-------------------------------------|
|-----5---5-5-5--4--5p4p2---2-----------|
|---5---------------------5---5-------0-|
|---------------------------------------|
|---------------------------------------|
|---------------------------------------|



  S S T T T  T S S T T T  T  S  S T T T  T S   S S S
|----------------------------------------------------|
|-0---0h2p0----0---0h2p0-----0----0h2p0----------0---|
|---0-------h4---0-------h4-----0-------h4-2---4---0-|
|----------------------------------------------------|
|----------------------------------------------------|
|----------------------------------------------------|



  S S T T T  T S S T T T  T  S  S T T T  T S S S S
|---------------------------------------------------||
|-0---0h2p0----0---0h2p0-----0----0h2p0--------0----||
|---0-------h4---0-------h4-----0-------h4-2-3---0--||
|---------------------------------------------------||
|---------------------------------------------------||
|---------------------------------------------------||


 Arabic inst. Solo
  w/Rhy Fig 2
  Gtr IV
   E.  T  T  E..    T  T   T  S  a  E  +S   S S  T  T
|-----------11tr12----11p-----------------------------|
|-----12h13--------13-----13p12-10h12-(12)-12---12h13-|
|-----------------------------------------------------|
|-----------------------------------------------------|
|-----------------------------------------------------|
|-----------------------------------------------------|



                |------3------|   |--3---|
   S      +S   +T       +T   +T   T   T  T  E.  T        +T   +S   T  T  S  S  S   T  T  S S
|-11b12==(11)r(11)b12==(11)r(11)-11p------------------------------------11-11-11-------------|
|------------------------------------13p12-13--13b13.5==(13)r(13)-12h13-----------13p12h13---|
|--------------------------------------------------------------------------------------------|
|--------------------------------------------------------------------------------------------|
|--------------------------------------------------------------------------------------------|
|--------------------------------------------------------------------------------------------|



   a  E    a  E    +S   S  T  T  S  S   S  T  T  S  E      E
|------------------------------------------------------------|
|-10h12---10h12---(12)-13-12h13p10-12--13-12h13p10-12-----12-|
|------------------------------------------------------------|
|------------------------------------------------------------|
|------------------------------------------------------------|
|------------------------------------------------------------|



   S  a      +E    S  T  T  T  T  S  S  S   S  S  S  +S   S  S  S
|-----------------15-11h15p11----11--------11------------------11-|
|-12-14b15==(14)r-------------14----14-13-----13-12-(12)-12-12----|
|-----------------------------------------------------------------|
|-----------------------------------------------------------------|
|-----------------------------------------------------------------|
|-----------------------------------------------------------------|



  Gtr IV
   S  S  T      +T       +S   +S    T      +T   +S   T      +T    S  T  T  S   S  S  S  S  S
|-15-12----------------------------12b13==(12)r(12)--------------15-12h15p12-----12----------|
|-------15pb16r(15)b16==(15)-(15)r------------------15b16==(15)r-------------h15----15-14-15-|
|--------------------------------------------------------------------------------------------|
|--------------------------------------------------------------------------------------------|
|--------------------------------------------------------------------------------------------|
|--------------------------------------------------------------------------------------------|



                                                          |-------3-------|
   S   S  S  T  T  S  S  S  S  S   S  T  T  T  T  a      +S   +S         +S   +S   S
|-12--15-16-15h16p15-12-15-15-15--16-15h16p15p12-15b16==(15)r(15)b16====(15)r(15)p12--|
|-------------------------------------------------------------------------------------|
|-------------------------------------------------------------------------------------|
|-------------------------------------------------------------------------------------|
|-------------------------------------------------------------------------------------|
|-------------------------------------------------------------------------------------|



   S  S  T  T  S  +S   S  S  S  S   T  T  S  T  T  S    S  S  S
|----12---------------------------------------------------------|
|-15----14h16p14-(14)-14-14-14-14--12h14h15-12h14h15---15-15-14-|
|---------------------------------------------------------------|
|---------------------------------------------------------------|
|---------------------------------------------------------------|
|---------------------------------------------------------------|



                           |---3---|              |---3---|
   a  E.    S  E  S  T  T  S  S    S  S  S  S  S  S  S    S
|-----------------------------------------------------------||
|-14p12----12-12-12-14h15-14h15p==12-14-14-14-15-14h15p==12-||
|-----------------------------------------------------------||
|-----------------------------------------------------------||
|-----------------------------------------------------------||
|-----------------------------------------------------------||


 Verse 4
  Gtr I
   W          +Q.   E E     +E   Q      W          +Q.   E a     +Q     Q
|-^0--------|-(0)--------------------|-^0--------|-(0)-----------------^0----|
|-^0--------|-(0)--------------------|-^0--------|-(0)-----------------^0----|
|-^5--------|-(5)---5S9b10==(9)r-9\--|-^5--------|-(5)---5S9b10==(9)r--^9\---|
|-^0--------|-(0)--------------------|-^0--------|-(0)-----------------------|
|-^5--------|-(5)---5S9b10==(9)r-9\--|-^5--------|-(5)---5S9b10==(9)r--^9\---|
|-----------|------------------------|-----------|---------------------------|


   W          +Q.   E E    +E   Q    W          H    S S S S Q
|-^0--------|-(0)------------------|-0--------|--------0--------|
|-^0--------|-(0)------------------|-0--------|--------0--------|
|-^3--------|-(3)---3S7b8==(7)r-7--|-5--------|-5------0-----5--|
|-^0--------|-(0)------------------|-0--------|-0------0-----0--|
|-^3--------|-(3)---3S7b8==(7)r-7--|-5--------|-5------5-----5--|
|-----------|----------------------|----------|------0-0---0-0--|


 Outro
  Gtr I
                                ~~~~
  Q.   S S E Q   S S   E E   Q  S E   S T T S E     Q.   S S E Q   S S
|-0----0-0-0-----0-0-|-0-----0--0-0---0-------0-||--0----0-0-0-----0-0-|
|-0----0-0-0-----0-0-|-0-----0--0-0---0-------0-||o-0----0-0-0-----0-0-|
|-5----6-6-6-5---6-6-|-6-5---5--5-5---5-4h5p4-0-||--5----6-6-6-5---6-6-|
|-0----0-0-0-0---0-0-|-0-0---0--0-0---0-0-----0-||--0----0-0-0-0---0-0-|
|-5----6-6-6-5---6-6-|-6-5---5--5-5---5-5-----5-||o-5----6-6-6-5---6-6-|
|--------------------|--------------------------||---------------------|
|
| Gtr II
| Q.   S S E E E S S   E S S Q  S S S S E     E     Q.   S S E E E S S
|-0----1-1-1-0---1-1-|-1-0-0-0--0-0-0-0-0-----0-||--0----1-1-1-0---1-1-|
|-0----1-1-1-0---1-1-|-1-0-0-0--0-0-0-0-0-----0-||o-0----1-1-1-0---1-1-|
|-0----1-1-1-0---1-1-|-1-0-0-0--0-0-0-0-0-----0-||--0----1-1-1-0---1-1-|
|-0----1-1-1-0---1-1-|-1-0-0-0--0-0-0-0-0-----0-||--0----1-1-1-0---1-1-|
|--------------------|--------------------------||o--------------------|
|--------------------|--------------------------||---------------------|
                                                 |-Rhy Fig 3 (Gtr II)

            ~~~~~
  E S S Q   S  E   S T T S E
|-0-0-0-0---0--0---0-------0-|
|-0-0-0-0---0--0---0-------0-|
|-6-5-5-5---5--5---5-4h5p4-0-|
|-0-0-0-0---0--0---0-0-----0-|
|-6-5-5-5---5--5---5-5-----5-|
|----------------------------|
|
| E S S Q  +S  S S S E     E
|-1-0-0-0--(0)-0-0-0-0-----0-|
|-1-0-0-0--(0)-0-0-0-0-----0-|
|-1-0-0-0--(0)-0-0-0-0-----0-|
|-1-0-0-0--(0)-0-0-0-0-----0-|
|----------------------------|
|----------------------------|


                                    ~~~~
  Q.       S S E Q   S S   E E   Q  S E   S T T S E   5x
|----------0-0-0-0---0-0-|-0-0---0--0-0---0-------0---||
|----------0-0-0-0---0-0-|-0-0---0--0-0---0-------0--o||
|-8--------6-6-6-5---6-6-|-6-5---5--5-5---5-4h5p4-0---||
|-x--------0-0-0-0---0-0-|-0-0---0--0-0---0-0-----0---||
|-8--------6-6-6-5---6-6-|-6-5---5--5-5---5-5-----5--o||
|------------------------|----------------------------||
|
| Q   +E   S S E E E S S   E S S Q  S S S S E     E   5x
|-3---(3)\-1-1-1-0---1-1-|-1-0-0-0--0-0-0-0-0-----0---||
|-3---(3)\-1-1-1-0---1-1-|-1-0-0-0--0-0-0-0-0-----0--o||
|-3---(3)\-1-1-1-0---1-1-|-1-0-0-0--0-0-0-0-0-----0---||
|-3---(3)\-1-1-1-0---1-1-|-1-0-0-0--0-0-0-0-0-----0---||
|------------------------|---------------------------o||
|------------------------|----------------------------||
                                       end Rhy Fig 3-|

 w/Rhy Fig 3 to end                           ~~~~~
    E  S S E S S E S S E S S   E S S S S S S  S  E   S T T S E
||---------------------------|-0---0---0-0-0-----0---0-------0-|
||o-0--0-0-0-0-0-0-0-0-0-0-0-|-0-0-0-0-0-0-0--0--0---0-------0-|
||--5--5-5-5-6-6-6-5-5-5-6-6-|-6-5-5-5-5-5-5--5--5---5-4h5p4-0-|
||--0--0-0-0-0-0-0-0-0-0-0-0-|-0-0-0-0-0-0-0--0--0---0-0-----0-|
||o-5--5-5-5-6-6-6-5-5-5-6-6-|-6-5-5-5-5-5-5--5--5---5-5-----5-|
||--0--0-0-0-0-0-0-----0-0-0-|-0-0-0-0-0------0----------------|



                                           ~~~~
  E S S  E   S S E S S E S S   E S S E S S S E   S T T S E   4x
|----------------------------|---------0-0-0-0---0-------0---||
|-0-0-0--0---0-0-0-0-0-0-0-0-|-0-0-0-0-0-0-0-0---0-------0--o||
|-8-8-8--8---6-6-6-5-5-5-6-6-|-6-5-5-5-5-5-5-5---5-4h5p4-0---||
|-0-0-0--0---0-0-0-0-0-0-0-0-|-0-0-0-0-0-0-0-0---0-0-----0---||
|-8-8-8--8---6-6-6-5-5-5-6-6-|-6-5-5-5-5-5-5-5---5-5-----5--o||
|-0-0-0--0---0-0-0-0-0-0-0-0-|-0-0-0-0-0-0-0-0---0-----------||



                                            ~~~~~
  E  S S E S S E S S E S S   E S S S S S S  S  E   S T T S E
|--------------------------|-0---0---0-0-0-----0---0-------0-*|
|-0--0-0-0-0-0-0-0-0-0-0-0-|-0-0-0-0-0-0-0--0--0---0-------0-*|
|-5--5-5-5-6-6-6-5-5-5-6-6-|-6-5-5-5-5-5-5--5--5---5-4h5p4-0-*|
|-0--0-0-0-0-0-0-0-0-0-0-0-|-0-0-0-0-0-0-0--0--0---0-0-----0-*|
|-5--5-5-5-6-6-6-5-5-5-6-6-|-6-5-5-5-5-5-5--5--5---5-5-----5-*|
|-0--0-0-0-0-0-0-----0-0-0-|-0-0-0-0-0------0----------------*|





Comments


Popular Page And Plant tabs & chords
Shining In The Light Bass Tabs
No Quarter Tabs
No Quarter 1 Tabs
Nobodys Foult But Mine Tabs
Shining In The Light Tabs
The Truth Explodes Tabs
Wah Wah Tabs
Wonderful One Tabs


Song lyrics



↑ Back to top | Tablatures and chords are parodies/interpretations of the original songs. You may use it for private study, scholarship, research or language learning purposes only
© 2014 AZChords.com Contact us | Privacy policy | DMCA | Add/correct tabs | Request tabs | Top 50 tabs