>
 >
United Alliance

United Alliance Guitar Tabs

Pagans Mind - United Alliance chords, tabs, tablatures, lyrics

Guitar lessons | Add/correct | Request | Top 50 tabs Artists:  A B C D E F G H I J K L M N O P Q R S T U V W X Y Z 0-9

United Alliance Guitar Tabs – Pagans Mind

CD, Sheet music, Poster

Do you like United Alliance? Share with your friends now
Tabs
                          
Pagan's Mind
God's Equation
Tuning-DADGBE

Guitar: Jorn Viggo Lofstad
Vocals: Nils K. Rue
Bass:   Steinar Krokmo
Drums:  Stian Kristoffersen
Keyboard/Synth: Ronny Tegner

This Is The GuitarPro Version that i have converted myself into the tab version 
so you can all enjoy 
it and have fun!

 (0:24)  
-------|-------|-------|-----------------------------|--------------------------|
-------|-------|-------|-----------------------------|--------------------------|
-------|-------|-------|-----------------------------|--------------------------|
-------|-------|-------|-----------------------------|--------------------------|
-------|-------|-------|-----------------------------|--------------------------|
-------|-------|-------|--3h--5----5--5----5--5------|-----1--1--1--1--3--3--3--|


-----------------------------|-----------------------------|-------------------------|
-----------------------------|-----------------------------|-------------------------|
-----------------------------|-----------------------------|-------------------------|
-----------------------------|-----------------------------|-------------------------|
-----------------------------|-----------------------------|-------------------------|
--3h--5----5--5----5--5------|-----1--1--1--1--3--3--3-----|--3h--5----5--5----5--5--|


-----------------------------|----------------------------|--------------------------|
-----------------------------|----------------------------|--------------------------|
-----------------------------|----------------------------|--------------------------|
-----------------------------|----------------------------|--------------------------|
-----------------------------|----------------------------|--------------------------|
-----1--1--1--1--3--3--3-----|--3h--5----5--5----5--5-----|-----1--1--1--1--3--3--3--|

 (0:36) 
-----------------------------|-----------------------------|-------------------------|
-----------------------------|-----------------------------|-------------------------|
-----------------------------|-----------------------------|-------------------------|
--3h--5----5--5----5--5------|-----1--1--1--1--3--3--3-----|--3h--5----5--5----5--5--|
--3h--5----5--5----5--5------|-----1--1--1--1--3--3--3-----|--3h--5----5--5----5--5--|
--3h--5----5--5----5--5------|-----1--1--1--1--3--3--3-----|--3h--5----5--5----5--5--|


------------------------------|----------------------------|--------------------------|
------------------------------|----------------------------|--------------------------|
------------------------------|----------------------------|--------------------------|
-----1--1--1--1--3--3--3------|--3h--5----5--5----5--5-----|-----1--1--1--1--3--3--3--|
-----1--1--1--1--3--3--3------|--3h--5----5--5----5--5-----|-----1--1--1--1--3--3--3--|
-----1--1--1--1--3--3--3------|--3h--5----5--5----5--5-----|-----1--1--1--1--3--3--3--|


                   
-----------------------------|-----------------------------|-------|-------|-------|
-----------------------------|-----------------------------|-------|-------|-------|
-----------------------------|-----------------------------|-------|-------|-------|
--3h--5----5--5----5--5------|-----1--1--1--1--3--3--3-----|-------|-------|-------|
--3h--5----5--5----5--5------|-----1--1--1--1--3--3--3-----|-------|-------|-------|
--3h--5----5--5----5--5------|-----1--1--1--1--3--3--3-----|-------|-------|-------|

(BASS PART)
                                  
-------|-------|-------|-------|-----------------------|
-------|-------|-------|-------|-----------------------|
-------|-------|-------|-------|-----------------------|
-------|-------|-------|-------|-----------6--6--6--6--|
-------|-------|-------|-------|-----------4--4--4--4--|
-------|-------|-------|-------|-----------------------|


  E  E  E  E  E  E  E  E     E  E  E  E  E  E  E  E   
------------------------------|--------------------------|
------------------------------|--------------------------|
------------------------------|--------------------------|
------------------------------|--------------------------|
--4--4--4--4--4--4--4--4------|--4--4--4--0--0--0--0--0--|
--4--4--4--4--4--4--4--4------|--4--4--4--0--0--0--0--0--|

  E  E  E  E  E  E  E  E     E  E  E  E  E  E  E  E   
------------------------------|------------------------------|
------------------------------|------------------------------|
------------------------------|------------------------------|
------------------------------|------------------------------|
--4--4--4--4--4--4--4--4------|--4--4--4--0--0--0--0--0------|
--4--4--4--4--4--4--4--4------|--4--4--4--0--0--0--0--0------|

  E  E  E  E  E  E  E  E     E  E  E  E  E  E  E  E   
------------------------------|------------------------------|
------------------------------|------------------------------|
------------------------------|------------------------------|
------------------------------|------------------------------|
--4--4--4--4--4--4--4--4------|--4--4--4--0--0--0--0--0------|
--4--4--4--4--4--4--4--4------|--4--4--4--0--0--0--0--0------|



                                            PM PM PM                        
  E  E  E  E  E  E  E  E     E  E  E  E  E  E  E  E     H.           E  E   
------------------------------|------------------------------|---------------------|
------------------------------|------------------------------|---------------------|
------------------------------|------------------------------|---------------------|
------------------------------|-----5--5--5--5--5--5--5------|---------------------|
--4--4--4--4--4--4--4--4------|--4--3--3--3--3--3--3--3------|--5------------L--5--|
--4--4--4--4--4--4--4--4------|--4---------------------------|--5------------L--5--|


                                   PM                         
  W                   H.           E  E     W                 
-------------------|-----------------------|-------------------|
-------------------|-----------------------|-------------------|
-------------------|--4------------L--4----|-------------------|
-------------------|--4------------L--4----|--4----------------|
--7----------------|--2------------L--2----|--4----------------|
--7----------------|-----------------------|--4----------------|


                                                         PM     
  H.           E  E     W                   H.           E  E   
-----------------------|-------------------|-----------------------|
-----------------------|-------------------|-----------------------|
-----------------------|-------------------|--4------------L--4----|
-----------------------|-------------------|--4------------L--4----|
--5------------L--5----|--7----------------|--2------------L--2----|
--5------------L--5----|--7----------------|-----------------------|


           PM                                                      
  E  E  E  E  Q    Q       H.           E  E     W                 
---------------------------|----------------------|-------------------|
---------------------------|----------------------|-------------------|
--L--4--4-----4----4-------|----------------------|-------------------|
--L--4--4--4--4----4-------|----------------------|-------------------|
--L--2--2--2--2----2-------|--5------------L--5---|--7----------------|
---------------------------|--5------------L--5---|--7----------------|


               PM                                               
  H.           E  E     W                   H.           E  E   
-----------------------|-------------------|---------------------|
-----------------------|-------------------|---------------------|
--4------------L--4----|-------------------|---------------------|
--4------------L--4----|--4----------------|---------------------|
--2------------L--2----|--4----------------|--5------------L--5--|
-----------------------|--4----------------|--5------------L--5--|


  W                   E  E  E  E  E  E  E  E     E  E  E  E  E  E  E  E   
-------------------|-----------------------------|--------------------------|
-------------------|-----------------------------|--------------------------|
-------------------|-----------------------------|--------------------------|
-------------------|--9--9--9--9-----9--9--9-----|-----4--4--4--4--5--5--5--|
--7----------------|--7--7--7--7-----7--7--7-----|-----2--2--2--2--3--3--3--|
--7----------------|-----------------------------|--------------------------|


  E  E  E  E  E  E  E  E     E  E  E  E  E  E  E  E   
-------------------------------|-------------------------------|
-------------------------------|-------------------------------|
-------------------------------|-------------------------------|
--9--9--9--9-----9--9--9-------|-----4--4--4--5--5--7--7-------|
--7--7--7--7-----7--7--7-------|-----2--2--2--3--3--5--5-------|
-------------------------------|-------------------------------|


  E  E  E  E  E  E  E  E     E  E  E  E  E  E  E  E   
--------------------------|--------------------------|
--------------------------|--------------------------|
--------------------------|--------------------------|
--9--9--9--9-----9--9--9--|-----4--4--4--5--5--7--7--|
--7--7--7--7-----7--7--7--|-----2--2--2--3--3--5--5--|
--------------------------|--------------------------|


  E  E  E  E  E  E  E  E     E  E  E  E  E  E  E  E                           
------------------------------|-----------------------------|-----|-----|-----|-----|
------------------------------|-----------------------------|-----|-----|-----|-----|
------------------------------|-----------------------------|-----|-----|-----|-----|
--9--9--9--9-----9--9--9------|-----4--4--4--5--5--7--7-----|-----|-----|-----|-----|
--7--7--7--7-----7--7--7------|-----2--2--2--3--3--5--5-----|-----|-----|-----|-----|
------------------------------|-----------------------------|-----|-----|-----|-----|


                                PM PM PM                             
                    H        E  E  E  E     E  E  E  E  E  E  E  E   
-----|-----|-----|------------------------|--------------------------|
-----|-----|-----|------------------------|--------------------------|
-----|-----|-----|------------------------|--------------------------|
-----|-----|-----|------------------------|--------------------------|
-----|-----|-----|--------------6--6--6---|--0--0--0--0--0--0--0--0--|
-----|-----|-----|--------------6--6--6---|--0--0--0--0--0--0--0--0--|


  E  E  E  Q.     E  E     E  E  E  E  E  E  E  E     E  E  E  Q.     E  E   
---------------------------|------------------------------|--------------------------|
---------------------------|------------------------------|--------------------------|
--------------4------4-----|------------------------------|--------------------------|
--------------2------2-----|------------------------------|-------------7------7-----|
--0--0--0--2------2--4-----|--4--4--4--4--4--4--4--4------|--4--4--4----7------7--0--|
--0--0--0--2------2--4-----|--4--4--4--4--4--4--4--4------|--4--4--4-------------0---|


  E  E  E  E  E  E  E  E     E  E  E  Q.     E  E     E  E  E  E  E  E  E  E   
------------------------------|---------------------------|--------------------------|
------------------------------|---------------------------|--------------------------|
------------------------------|---------------------------|--------------------------|
------------------------------|-----------2------2--------|--------------------------|
--0--0--0--0--0--0--0--0------|--0--0--0--2------2--4-----|--4--4--4--4--4--4--4--6--|
--0--0--0--0--0--0--0--0------|--0--0--0--2------2--4-----|--4--4--4--4--4--4--4--6--|


  E  E  E  E  E  E  E  E     H.           E  E     W                 
------------------------------|-----------------------|-------------------|
------------------------------|-----------------------|-------------------|
------------------------------|-----------------------|--4----------------|
------------------------------|-----------------------|--4----------------|
--6--6--6--6--6--6--6--6------|--7------------L--7----|--2----------------|
--6--6--6--6--6--6--6--6------|--7------------L--7----|-------------------|


               PM                                               
  H.           E  E     W                   H.           E  E   
-----------------------|-------------------|---------------------|
-----------------------|-------------------|---------------------|
--6------------L--6----|-------------------|---------------------|
--6------------L--6----|--6----------------|---------------------|
--4------------L--4----|--6----------------|--7------------L--7--|
-----------------------|--6----------------|--7------------L--7--|


                                   PM                PM            
  W                   H.           E  E     E  E  E  E  Q    Q     
-------------------|-----------------------|------------------------|
-------------------|-----------------------|------------------------|
--4----------------|--6------------L--6----|--L--6--6-----6----6----|
--4----------------|--6------------L--6----|--L--6--6--6--6----6----|
--2----------------|--4------------L--4----|--L--4--4--4--4----4----|
-------------------|-----------------------|------------------------|


                                                         PM     
  H.           E  E     W                   H.           E  E   
-----------------------|--------------------|---------------------|
-----------------------|--------------------|---------------------|
-----------------------|--4-----------------|--6------------L--6--|
-----------------------|--4-----------------|--6------------L--6--|
--7------------L--7----|--2-----------------|--4------------L--4--|
--7------------L--7----|--------------------|---------------------|


  W                   H.           E  E     W                 
-------------------|----------------------|-------------------|
-------------------|----------------------|-------------------|
-------------------|----------------------|--4----------------|
--6----------------|----------------------|--4----------------|
--6----------------|--7------------L--7---|--2----------------|
--6----------------|--7------------L--7---|-------------------|


  E  E  E  E  E  Q    E     E  E  E  E  E  Q    E     E  E  E  E  E  Q    E   
-------------------------|-------------------------|-------------------------|
-------------------------|-------------------------|-------------------------|
-------------------------|-------------------------|-------------------------|
-------------------------|-------------------------|-------------------------|
--4--4--2--4--2--7----2--|--4--4--2--4--2--7----2--|--4--4--2--4--2--7----2--|
--4--4--2--4--2--7----2--|--4--4--2--4--2--7----2--|--4--4--2--4--2--7----2--|


                 PM PM PM                                                      
  E  E  E  E  E  E  E  E     E  E  E  E  E  Q    E     E  E  E  E  E  Q    E   
--------------------------|-------------------------|-------------------------|
--------------------------|-------------------------|-------------------------|
--------------------------|-------------------------|-------------------------|
--------------------------|-------------------------|-------------------------|
--4--4--2--4--2--2--2--2--|--4--4--2--4--2--7----2--|--4--4--2--4--2--7----2--|
--4--4--2--4--2--2--2--2--|--4--4--2--4--2--7----2--|--4--4--2--4--2--7----2--|


  E  E  E  E  E  Q    E     E  E  E  E  E  Q    E     E  E  E  E  E  Q    E   
-------------------------|-------------------------|-------------------------|
-------------------------|-------------------------|-------------------------|
-------------------------|-------------------------|-------------------------|
-------------------------|-------------------------|-------------------------|
--4--4--2--4--2--7----2--|--4--4--2--4--2--7----2--|--4--4--2--4--2--7----2--|
--4--4--2--4--2--7----2--|--4--4--2--4--2--7----2--|--4--4--2--4--2--7----2--|


  E  E  E  E  E  Q    E     E  E  E  E  E  Q    E     E  E  E  E  E  Q    E   
-------------------------|-------------------------|-------------------------|
-------------------------|-------------------------|-------------------------|
-------------------------|-------------------------|-------------------------|
-------------------------|-------------------------|-------------------------|
--4--4--2--4--2--7----2--|--4--4--2--4--2--7----2--|--4--4--2--4--2--7----2--|
--4--4--2--4--2--7----2--|--4--4--2--4--2--7----2--|--4--4--2--4--2--7----2--|


  E  E  E  E  E  Q    E     E  E  E  E  E  Q    E     E  E  E  E  E  Q    E   
-------------------------|-------------------------|-------------------------|
-------------------------|-------------------------|-------------------------|
-------------------------|-------------------------|-------------------------|
-------------------------|-------------------------|-------------------------|
-------------------------|-------------------------|-------------------------|
--4--4--2--4--2--7----2--|--4--4--2--4--2--7----2--|--4--4--2--4--2--7----2--|


  E  E  E  E  E  Q    E     E  E  E  E  E  Q    E     E  E  E  E  E  Q    E   
-------------------------|-------------------------|-------------------------|
-------------------------|-------------------------|-------------------------|
-------------------------|-------------------------|-------------------------|
-------------------------|-------------------------|-------------------------|
-------------------------|-------------------------|-------------------------|
--4--4--2--4--2--7----2--|--4--4--2--4--2--7----2--|--4--4--2--4--2--7----2--|


  E  E  E  E  E  Q    E     E  E  E  E  E  Q    E     E  E  E  E  E  Q     E   
-------------------------|-------------------------|--------------------------|
-------------------------|-------------------------|--------------------------|
-------------------------|-------------------------|--------------------------|
-------------------------|-------------------------|--------------------------|
-------------------------|-------------------------|-----------------7~-------|
--4--4--2--4--2--7----2--|--4--4--2--4--2--7----2--|--4--4--2--4--2--7~----2--|


  E  E  E  E  E  Q     E     E  E  E  E  E  Q     E   
--------------------------|--------------------------|
--------------------------|--------------------------|
--------------------------|--------------------------|
--------------------------|--------------------------|
-----------------7~-------|-----------------7~-------|
--4--4--2--4--2--7~----2--|--4--4--2--4--2--7~----2--|


  E  E  E  E  E  Q     E     E  E  E  E  E  Q     E   
--------------------------|--------------------------|
--------------------------|--------------------------|
--------------------------|--------------------------|
--------------------------|--4--4--2--4--2--7~----2--|
-----------------7~-------|--------------------------|
--4--4--2--4--2--7~----2--|--------------------------|


  E  E  E  E  E  Q     E     E  E  E  E  E  Q     E   
--------------------------|--------------------------|
--------------------------|--------------------------|
--------------------------|--------------------------|
--4--4--2--4--2--7~----2--|--4--4--2--4--2--7~----2--|
--------------------------|--------------------------|
--------------------------|--------------------------|


  S S S S S S S S S S S S S S S S    Q.     Q     S S E  E   
-----------------------------------------|----------------------------|
-----------------------------------------|----------------------5-----|
-----------------------------------------|---------4b----4-2-4--------|
--4-2-4-2-4-2-4-2-4-2-4-2-4-2------------|----------------------------|
---------------------------------4-2-----|--0-------------------------|
-----------------------------------------|----------------------------|


  Q    E  E   E  E  E  E     E  E   E  E  E  E  E  E   
----------------------------|-----------------------------|
--L----L-----------7-----9--|--L-----10-----9--------7----|
----------4s--6-------6-----|-----6------6-----6-------6--|
----------------------------|-----------------------------|
----------------------------|-----------------------------|
----------------------------|-----------------------------|


  |--3--|  |--3--|  |-3|                                          
  E  E  E  E  E  E  E  Q     E  E     S S E   Q    S S E.  S S S  
----------------------------------------|----------------------------------|
--5-----7-----5-------------------------|----------------------------------|
-----6-----6-----6--4--Lb----L--4-------|----4-2~--L-----------------------|
----------------------------------------|--4------------4-2-4---2-4-2------|
----------------------------------------|----------------------------------|
----------------------------------------|----------------------------------|


  S S S S E  S S S S E  E   E    
-----------------------------------|
-----------------------------------|
-----------------------------------|
-----------------------------------|
--4-3-2-0-2--4-2-------------------|
-----------------4-2-4--L--16\-----|


     |-3-| |-3-|   |--3-|  |-3-|  |-3-| |-3|  |-3-|  
  E  S S S S   E   S S  S  S   E  S S S S  E  S S S  
---------------------------------------------------------------|
---------------------------------------------------------------|
---------------------------------------------------------------|
----------------------------------------7-6-7-7s-9--9-7-9------|
-----9-7-9-9s-11--11-9-11-11s-12-------------------------------|
--L------------------------------------------------------------|


  |-3-|   |--3-| |-3-|  |-3-|                 
  S   E   S S  S S   E  S S S  E  E   E   E   
-----------------------------------------------------|
----------------------------------9--10--12----------|
--------------------9s-11--9-8-9-11------------------|
--9s-11--11-9-11-------------------------------------|
-----------------------------------------------------|
-----------------------------------------------------|


                         |-3-|           
   E    S  S  E   E   E  S   E   E   E   
-------------------------------------------------|
--12b--12-10-12--10~--L---------10--12-----------|
--------------------------------9s-11------------|
-------------------------------------------------|
-------------------------------------------------|
-------------------------------------------------|


                                              TH                                
                         |-3-|                                                  
   E    S  S  E   E   E  S   E   E   E        E    S  S  E   Q      E   E   E   
-------------------------------------------------|--------------------------------------------|
--12b--12-10-12--10~--L---------10--12-----------|--<>15b-------------------------------------|
--------------------------------9s-11------------|---------16-14-16--14~--------14--16--------|
-------------------------------------------------|--------------------------16----------------|
-------------------------------------------------|--------------------------------------------|
-------------------------------------------------|--------------------------------------------|


     E    S  S  E   Q       E   E   E      E    S  S  E   Q      E   E   E   
----------------------------------------------|-------------------------------------------|
--<>15b----------------------------14---------|--17b--17----------------------------------|
---------16-14-16--16b~--------14-------------|-----------18-16-----------------18--------|
---------------------------16-----------------|------------------19~----16--19------------|
----------------------------------------------|-------------------------------------------|
----------------------------------------------|-------------------------------------------|


   E    S  S  E    Q.      E   E      Q     E    Q.      Q     
------------------------------16b-----------|--L----16b--16b------L----|
--17b--17-14-17b--17------14----------------|--------------------------|
--------------------------------------------|--------------------------|
--------------------------------------------|--------------------------|
--------------------------------------------|--------------------------|
--------------------------------------------|--------------------------|


   E    S  S  S  S  E    S  S  S  S  S  S  S  S    H.           E  E   
--16b--16-14----14-----------------------------------|---------------------|
-------------17----17b--17-14------------------------|---------------------|
---------------------------------16-14---------------|---------------------|
---------------------------------------16-14---------|---------------------|
---------------------------------------------16-14---|--5------------L--5--|
-----------------------------------------------------|--5------------L--5--|


                                   PM                         
  W                   H.           E  E     W                 
-------------------|---------------------|-------------------|
-------------------|---------------------|-------------------|
-------------------|--4------------L--4--|-------------------|
-------------------|--4------------L--4--|--4----------------|
--7----------------|--2------------L--2--|--4----------------|
--7----------------|---------------------|--4----------------|


                                                         PM     
  H.           E  E     W                   H.           E  E   
---------------------|-------------------|---------------------|
---------------------|-------------------|---------------------|
---------------------|-------------------|--4------------L--4--|
---------------------|-------------------|--4------------L--4--|
--5------------L--5--|--7----------------|--2------------L--2--|
--5------------L--5--|--7----------------|---------------------|


           PM                                                      
  E  E  E  E  Q    Q       H.           E  E     W                 
------------------------|---------------------|-------------------|
------------------------|---------------------|-------------------|
--L--4--4-----4----4----|---------------------|-------------------|
--L--4--4--4--4----4----|---------------------|-------------------|
--L--2--2--2--2----2----|--5------------L--5--|--7----------------|
------------------------|--5------------L--5--|--7----------------|


               PM                                               
  H.           E  E     W                   H.           E  E   
---------------------|-------------------|---------------------|
---------------------|-------------------|---------------------|
--4------------L--4--|-------------------|---------------------|
--4------------L--4--|--4----------------|---------------------|
--2------------L--2--|--4----------------|--5------------L--5--|
---------------------|--4----------------|--5------------L--5--|


  W                   H.           E  E     W                 
-------------------|---------------------|-------------------|
-------------------|---------------------|-------------------|
-------------------|---------------------|--4----------------|
-------------------|---------------------|--4----------------|
--7----------------|--7------------L--7--|--2----------------|
--7----------------|--7------------L--7--|-------------------|


               PM                                               
  H.           E  E     W                   H.           E  E   
---------------------|-------------------|---------------------|
---------------------|-------------------|---------------------|
--6------------L--6--|-------------------|---------------------|
--6------------L--6--|--6----------------|---------------------|
--4------------L--4--|--6----------------|--7------------L--7--|
---------------------|--6----------------|--7------------L--7--|


                                   PM                PM            
  W                   H.           E  E     E  E  E  E  Q    Q     
-------------------|---------------------|------------------------|
-------------------|---------------------|------------------------|
--4----------------|--6------------L--6--|--L--6--6-----6----6----|
--4----------------|--6------------L--6--|--L--6--6--6--6----6----|
--2----------------|--4------------L--4--|--L--4--4--4--4----4----|
-------------------|---------------------|------------------------|


                                                         PM     
  H.           E  E     W                   H.           E  E   
---------------------|-------------------|---------------------|
---------------------|-------------------|---------------------|
---------------------|--4----------------|--6------------L--6--|
---------------------|--4----------------|--6------------L--6--|
--7------------L--7--|--2----------------|--4------------L--4--|
--7------------L--7--|-------------------|---------------------|


  W                   H.           E  E     W                 
-------------------|---------------------|-------------------|
-------------------|---------------------|-------------------|
-------------------|---------------------|--4----------------|
--6----------------|---------------------|--4----------------|
--6----------------|--7------------L--7--|--2----------------|
--6----------------|--7------------L--7--|-------------------|


  H.           E  E     W                   H.           E  E   
---------------------|-------------------|---------------------|
---------------------|-------------------|---------------------|
---------------------|--4----------------|--5------------L--5--|
---------------------|--4----------------|--5------------L--5--|
--7------------L--7--|--2----------------|--3------------L--3--|
--7------------L--7--|-------------------|---------------------|


  W                   E   Q    E  Q    E  E     E  E  E  E  E  E  E  E   
-------------------|-------------------------|--------------------------|
-------------------|-------------------------|--------------------------|
--7----------------|-------------------------|--------------------------|
--7----------------|--3h--5----5--5----5--5--|-----1--1--1--1--3--3--3--|
--5----------------|--3h--5----5--5----5--5--|-----1--1--1--1--3--3--3--|
-------------------|--3h--5----5--5----5--5--|-----1--1--1--1--3--3--3--|


  E   Q    E  Q    E  E     E  E  E  E  E  E  E  E     E   Q    E  Q    E  E   
-------------------------|--------------------------|-------------------------|
-------------------------|--------------------------|-------------------------|
-------------------------|--------------------------|-------------------------|
--3h--5----5--5----5--5--|-----1--1--1--1--3--3--3--|--3h--5----5--5----5--5--|
--3h--5----5--5----5--5--|-----1--1--1--1--3--3--3--|--3h--5----5--5----5--5--|
--3h--5----5--5----5--5--|-----1--1--1--1--3--3--3--|--3h--5----5--5----5--5--|


  E  E  E  E  E  E  E  E     E   Q    E  Q    E  E     E  E  E  E  E  E  E  E   
-----------------------------|-------------------------|--------------------------|
-----------------------------|-------------------------|--------------------------|
-----------------------------|-------------------------|--------------------------|
-----1--1--1--1--3--3--3-----|--3h--5----5--5----5--5--|-----1--1--1--1--3--3--3--|
-----1--1--1--1--3--3--3-----|--3h--5----5--5----5--5--|-----1--1--1--1--3--3--3--|
-----1--1--1--1--3--3--3-----|--3h--5----5--5----5--5--|-----1--1--1--1--3--3--3--|


  E   Q    E  Q    E  E     E  E  E  E  E  E  E  E     E   Q    E  Q    E  E   
-----------------------------|--------------------------|-------------------------|
-----------------------------|--------------------------|-------------------------|
-----------------------------|--------------------------|-------------------------|
--3h--5----5--5----5--5------|-----1--1--1--1--3--3--3--|--3h--5----5--5----5--5--|
--3h--5----5--5----5--5------|-----1--1--1--1--3--3--3--|--3h--5----5--5----5--5--|
--3h--5----5--5----5--5------|-----1--1--1--1--3--3--3--|--3h--5----5--5----5--5--|


  E  E  E  E  E  E  E  E     E   Q    E  Q    E  E     E  E  E  E  E  E  E  E   
------------------------------|----------------------------|--------------------------|
------------------------------|----------------------------|--------------------------|
------------------------------|----------------------------|--------------------------|
-----1--1--1--1--3--3--3------|--3h--5----5--5----5--5-----|-----1--1--1--1--3--3--3--|
-----1--1--1--1--3--3--3------|--3h--5----5--5----5--5-----|-----1--1--1--1--3--3--3--|
-----1--1--1--1--3--3--3------|--3h--5----5--5----5--5-----|-----1--1--1--1--3--3--3--|


  E   Q    E  Q    E  E     E  E  E  E  E  E  E  E     H         H          
-----------------------------|--------------------------|---------------------||
-----------------------------|--------------------------|---------------------||
-----------------------------|--------------------------|---------------------||
--3h--5----5--5----5--5------|-----1--1--1--1--3--3--3--|--5\-----------------||
--3h--5----5--5----5--5------|-----1--1--1--1--3--3--3--|--5\-----------------||
--3h--5----5--5----5--5------|-----1--1--1--1--3--3--3--|--5\-----------------||




Duration Legend
---------------
W - whole
H - half
Q - quarter
E - 8th
S - 16th
T - 32nd
X - 64th
. - note dotted
|-n-|  - n-tuplets


Tablature Legend
----------------
L - tied note
x - dead note
g - grace note
(n) - ghost note
> - accentuded note
NH - natural harmonic
AH - artificial harmonic
TH - tapped harmonic
SH - semi harmonic
PH - pitch harmonic
h - hammer on
p - pull off
b - bend
br - bendRelease
pb - preBend
pbr - preBendRelease
brb - bendReleaseBend
\n/ - tremolo bar dip
\n - tremolo bar dive
-/n - tremolo bar Release up
/n\ - tremolo bar inverted dip
/n - tremolo bar return
-\n - tremolo bar Release down
S - shift slide
s - legato slide
/ -  slide into from below or out of upwards
\ -  slide into from above or out of downwards
~ - vibrato
W - wide vibrato
tr - trill
TP - tremolo picking
T - tapping
S - slap
P - pop
< - fade in
^ - brush up
v - brush down





Comments


Popular Pagans Mind tabs & chords
Approaching Bass Tabs
Back To The Magic Of Childhood Exploring Life Part 2 Bass Tabs
Back To The Magic Of Childhood Exploring Life Part 2 2 Bass Tabs
Dimensions Of Fire Bass Tabs
Aegan Shores Tabs
Back To The Magic Of Childhood Conception Part 1 Tabs
Back To The Magic Of Childhood Exploring Life Part 2 Tabs
Hallo Spaceboy Tabs
Taken Tabs
The Celestine Prophecy Intro Tabs


Song lyrics



↑ Back to top | Tablatures and chords are parodies/interpretations of the original songs. You may use it for private study, scholarship, research or language learning purposes only
© 2014 AZChords.com Contact us | Privacy policy | DMCA | Add/correct tabs | Request tabs | Top 50 tabs