>
 >
Dimensions Of Fire

Dimensions Of Fire Guitar Tabs

Pagans Mind - Dimensions Of Fire chords, tabs, tablatures, lyrics

Guitar lessons | Add/correct | Request | Top 50 tabs Artists:  A B C D E F G H I J K L M N O P Q R S T U V W X Y Z 0-9

Dimensions Of Fire Guitar Tabs – Pagans Mind

CD, Sheet music, Poster

Do you like Dimensions Of Fire? Share with your friends now
Bass TabsTabs

DIMENSIONS OF FIRE
As recorded by Pagan's Mind
(From the 2002 Album CELESTIAL ENTRANCE)

        

Words and Music by Pagan's Mind

Gtr I (B E A D G B E) - 'Guitar 1'
Gtr II (B E A D G B E) - 'Guitar 2'

                   Intro - 0:00
  Q=110
                    E5  F5/C          F5/C    B5/F# Bb5/F
 4/4
  Gtr I
                    PM|     PM----|       PM|
  H    Q    Q       E E E E E E E E   E E E E E E E E
|---------------||------------------|-----------------|
|---------------||------------------|-----------------|
|---------------||o-----------------|-----------------|
|---------------||------------------|-----------------|
|---------------||o-----8S7---------|-8S7-------------|
|---------/12\--||--0-0-8S7-0-0-0-0-|-8S7-0-0-7S6-x-6-|
|---------------||------------------|---------7S6-x-6-|


        F5/C      D5/A      A
            PM----~~~~~~~~~~~~~~
  +E  E E E E E E E   +Q.    Q.    +Q
|-------------------|----------------------||
|-------------------|-------10----(10)\----||
|-----------------7-|-(7)----6-----(6)\---o||
|-----------------7-|-(7)----7-----(7)\----||
|-------8S7---------|---------------------o||
|-(6)-0-8S7-0-0-0---|----------------------||
|-(6)---------------|----------------------||


 Verse 1 - 0:19
  E5
 4/4
  PM|   PM  PM  PM    PM  PM  PM  PM----|   PM  PM  PM    PM  PM  PM  PM
  E E E e E e E e   E e E e E e E E   E E E e E e E e   E e E e E e E E
|-----------------|-----------------|-----------------|-----------------|
|-----------------|-----------------|-----------------|-----------------|
|-----------------|-----------------|-----------------|-----------------|
|-----------------|-----------------|-----------------|-----------------|
|-----------------|-----------------|-----------------|-----------------|
|-0-0---0---0---0-|---0---0---0---0-|-0-0---0---0---0-|---0---0---0---0-|
|-----------------|-----------------|-----------------|-----------------|


  PM----------------------------------------------------------|
  E E E e E e E e   E e E e E e E E   E E E e E e E e   E e E e E S S E E
|-----------------|-----------------|-----------------|-------------------|
|-----------------|-----------------|-----------------|-------------------|
|-----------------|-----------------|-----------------|-------------------|
|-----------------|-----------------|-----------------|-------------------|
|-----------------|-----------------|-----------------|---------------0---|
|-0-0---0---0---0-|---0---0---0---0-|-0-0---0---0---0-|---0---0---2h3---3-|
|-----------------|-----------------|-----------------|-------------------|


  PM|   PM  PM  PM    PM  PM  PM  PM----|   PM  PM  PM    PM  PM  PM  PM
  E E E e E e E e   E e E e E e E E   E E E e E e E e   E e E e E e E E
|-----------------|-----------------|-----------------|-----------------|
|-----------------|-----------------|-----------------|-----------------|
|-----------------|-----------------|-----------------|-----------------|
|-----------------|-----------------|-----------------|-----------------|
|-----------------|-----------------|-----------------|-----------------|
|-0-0---0---0---0-|---0---0---0---0-|-0-0---0---0---0-|---0---0---0---0-|
|-----------------|-----------------|-----------------|-----------------|


                                                  E5/B    Bm   A
  PM|   PM  PM  PM    PM  PM  PM  PM----|   PM  PM        ~~~~~~~
  E E E e E e E e   E e E e E e E E   E E E e E e   Q     H    H
|-----------------|-----------------|-------------------|-----------|
|-----------------|-----------------|-------------------|-----------|
|-----------------|-----------------|-------------------|-----------|
|-----------------|-----------------|-------------------|-----------|
|-----------------|-----------------|-------------------|-5----4----|
|-0-0---0---0---0-|---0---0---0---0-|-0-0---0---0-/12\--|-7----5----|
|-----------------|-----------------|-------------/12\--|-----------|


 Bridge - 0:54
  G          A          Bb5  F5/Bb   Bb   Bb5/F
 4/4
                                     ~~~~~~~~
  W          W          H     H      H     H
|----------|----------|------------|------------|
|----------|----------|------------|------11----|
|-4--------|-6--------|------------|-7----10----|
|-5--------|-7--------|-8----10----|-8-----8----|
|-5--------|-7--------|-8-----8----|-8-----8----|
|-3--------|-5--------|-6-----6----|-6----------|
|----------|----------|------------|------------|


  Eb5  Bb5/Eb  Eb/Bb Bbmaj7susB5                C
                              PM------------------------------|
  H     H       H     H       E E E E E E E E   E E E E E E E E
|------------|--------------|-----------------|-----------------|
|------------|--------------|-----------------|-----------------|
|------------|--------------|-----------------|-----------------|
|------------|-/5----/7\----|-4---------------|-----------------|
|-6----/8----|--6-----6-----|-2---------------|-----------------|
|-6-----6----|--6-----6-----|-2-2-2-2-2-2-2-2-|-2-2-2-2-2-2-2-2-|
|-4-----4----|--------------|-0-0-0-0-0-0-0-0-|-1-1-1-1-1-1-1-1-|


 Verse 2 - 1:11
  E5
  PM|   PM  PM  PM    PM  PM  PM  PM----|   PM  PM  PM    PM  PM  PM  PM
  E E E e E e E e   E e E e E e E E   E E E e E e E e   E e E e E e E E
|-----------------|-----------------|-----------------|-----------------|
|-----------------|-----------------|-----------------|-----------------|
|-----------------|-----------------|-----------------|-----------------|
|-----------------|-----------------|-----------------|-----------------|
|-----------------|-----------------|-----------------|-----------------|
|-0-0---0---0---0-|---0---0---0---0-|-0-0---0---0---0-|---0---0---0---0-|
|-----------------|-----------------|-----------------|-----------------|


  PM|   PM  PM  PM    PM  PM  PM  PM----|   PM  PM  PM    PM  PM
  E E E e E e E e   E e E e E e E E   E E E e E e E e   E e E e E S S E E
|-----------------|-----------------|-----------------|-------------------|
|-----------------|-----------------|-----------------|-------------------|
|-----------------|-----------------|-----------------|-------------------|
|-----------------|-----------------|-----------------|-------------------|
|-----------------|-----------------|-----------------|---------------0---|
|-0-0---0---0---0-|---0---0---0---0-|-0-0---0---0---0-|---0---0---2h3---3-|
|-----------------|-----------------|-----------------|-------------------|


  PM|   PM  PM  PM    PM  PM  PM  PM----|   PM  PM  PM    PM  PM  PM  PM
  E E E e E e E e   E e E e E e E E   E E E e E e E e   E e E e E e E E
|-----------------|-----------------|-----------------|-----------------|
|-----------------|-----------------|-----------------|-----------------|
|-----------------|-----------------|-----------------|-----------------|
|-----------------|-----------------|-----------------|-----------------|
|-----------------|-----------------|-----------------|-----------------|
|-0-0---0---0---0-|---0---0---0---0-|-0-0---0---0---0-|---0---0---0---0-|
|-----------------|-----------------|-----------------|-----------------|


                                                  E5/B    Bm   A
  PM|   PM  PM  PM    PM  PM  PM  PM----|   PM  PM        ~~~~~~~
  E E E e E e E e   E e E e E e E E   E E E e E e   Q     H    H
|-----------------|-----------------|-------------------|-----------|
|-----------------|-----------------|-------------------|-----------|
|-----------------|-----------------|-------------------|-----------|
|-----------------|-----------------|-------------------|-----------|
|-----------------|-----------------|-------------------|-5----4----|
|-0-0---0---0---0-|---0---0---0---0-|-0-0---0---0-/12\--|-7----5----|
|-----------------|-----------------|-------------/12\--|-----------|


 Bridge - 1:46
  G          A          Bb5  F5/Bb   Bb   Bb5/F
                                     ~~~~~~~~
  W          W          H     H      H     H
|----------|----------|------------|------------|
|----------|----------|------------|------11----|
|-4--------|-6--------|------------|-7----10----|
|-5--------|-7--------|-8----10----|-8-----8----|
|-5--------|-7--------|-8-----8----|-8-----8----|
|-3--------|-5--------|-6-----6----|-6----------|
|----------|----------|------------|------------|


  Eb   Bb5/Eb  Eb/Bb Bbmaj7susB5                C5
                              PM------------------------------|
  H     H       H     H       E E E E E E E E   E E E E E E E E
|------------|--------------|-----------------|-----------------|
|------------|--------------|-----------------|-----------------|
|------------|--------------|-----------------|-----------------|
|-5----------|-/5----/7\----|-4---------------|-----------------|
|-6----/8----|--6-----6-----|-2---------------|-----------------|
|-6-----6----|--6-----6-----|-2-2-2-2-2-2-2-2-|-2-2-2-2-2-2-2-2-|
|-4-----4----|--------------|-0-0-0-0-0-0-0-0-|-0-0-0-0-0-0-0-0-|


   Pre-Chorus - 2:03
    C5
    PM|   PM  PM  PM----|   PM  PM  PM----|   PM  PM  PM----|
    E E E e E e E e   E E E e E e E e   E E E e E e E e   E E E Q  S S E E
||------------------|-----------------|-----------------|-------------------||
||------------------|-----------------|-----------------|-------------------||
||o-----------------|-----------------|-----------------|------------------o||
||------------------|-----------------|-----------------|-------5-----------||
||o-3-3---3---3---3-|-3-3---3---3---3-|-3-3---3---3---3-|-3-3---3------1---o||
||--3-3---3---3---3-|-3-3---3---3---3-|-3-3---3---3---3-|-3-3---3--1h3---3--||
||--1-1---1---1---1-|-1-1---1---1---1-|-1-1---1---1---1-|-1-1---1-----------||


 Chorus - 2:21
  Bb          A           G#          G
 3/4
  Q.   Q.     Q.   Q.     Q.   Q.     Q.   Q.
|-----------|-----------|-----------|-----------|
|-----------|-----------|-----------|-----------|
|-3----5----|-2---------|-1----3----|-0---------|
|-----------|------3----|-----------|------1----|
|-----------|-----------|-----------|-----------|
|-----------|-----------|-----------|-----------|
|-----------|-----------|-----------|-----------|


  Bb          A           G#          C5 D5
                                     2/4
  Q.   Q.     Q.   Q.     Q.   Q.     Q  Q
|-----------|-----------|-----------|-------|
|-----------|-----------|-----------|-------|
|-3----5----|-2---------|-1----3----|-------|
|-----------|------3----|-----------|-------|
|-----------|-----------|-----------|-3--5--|
|-----------|-----------|-----------|-3--5--|
|-----------|-----------|-----------|-1--3--|


    E5  F5/C          F5/C    B5/F# Bb5/F
   4/4
    PM|     PM----|       PM|
    E E E E E E E E   E E E E E E E E
||------------------|-----------------|
||------------------|-----------------|
||o-----------------|-----------------|
||------------------|-----------------|
||o-----8S7---------|-8S7-------------|
||--0-0-8S7-0-0-0-0-|-8S7-0-0-7S6-x-6-|
||------------------|---------7S6-x-6-|


        F5/C      D5/A      A
            PM----~~~~~~~~~~~~~~
  +E  E E E E E E E   +Q.    Q.    +Q
|-------------------|----------------------||
|-------------------|-------10----(10)\----||
|-----------------7-|-(7)----6-----(6)\---o||
|-----------------7-|-(7)----7-----(7)\----||
|-------8S7---------|---------------------o||
|-(6)-0-8S7-0-0-0---|----------------------||
|-(6)---------------|----------------------||


 Verse 3 - 2:52
  E5
  PM|   PM  PM  PM    PM  PM  PM  PM----|   PM  PM  PM    PM  PM  PM  PM
  E E E e E e E e   E e E e E e E E   E E E e E e E e   E e E e E e E E
|-----------------|-----------------|-----------------|-----------------|
|-----------------|-----------------|-----------------|-----------------|
|-----------------|-----------------|-----------------|-----------------|
|-----------------|-----------------|-----------------|-----------------|
|-----------------|-----------------|-----------------|-----------------|
|-0-0---0---0---0-|---0---0---0---0-|-0-0---0---0---0-|---0---0---0---0-|
|-----------------|-----------------|-----------------|-----------------|


  PM|   PM  PM  PM    PM  PM  PM  PM----|   PM  PM  PM    PM  PM
  E E E e E e E e   E e E e E e E E   E E E e E e E e   E e E e E S S E E
|-----------------|-----------------|-----------------|-------------------|
|-----------------|-----------------|-----------------|-------------------|
|-----------------|-----------------|-----------------|-------------------|
|-----------------|-----------------|-----------------|-------------------|
|-----------------|-----------------|-----------------|---------------0---|
|-0-0---0---0---0-|---0---0---0---0-|-0-0---0---0---0-|---0---0---2h3---3-|
|-----------------|-----------------|-----------------|-------------------|


  PM|   PM  PM  PM    PM  PM  PM  PM----|   PM  PM  PM    PM  PM  PM  PM
  E E E e E e E e   E e E e E e E E   E E E e E e E e   E e E e E e E E
|-----------------|-----------------|-----------------|-----------------|
|-----------------|-----------------|-----------------|-----------------|
|-----------------|-----------------|-----------------|-----------------|
|-----------------|-----------------|-----------------|-----------------|
|-----------------|-----------------|-----------------|-----------------|
|-0-0---0---0---0-|---0---0---0---0-|-0-0---0---0---0-|---0---0---0---0-|
|-----------------|-----------------|-----------------|-----------------|


                                                  E5/B    Bm   A
  PM|   PM  PM  PM    PM  PM  PM  PM----|   PM  PM        ~~~~~~~
  E E E e E e E e   E e E e E e E E   E E E e E e   Q     H    H
|-----------------|-----------------|-------------------|-----------|
|-----------------|-----------------|-------------------|-----------|
|-----------------|-----------------|-------------------|-----------|
|-----------------|-----------------|-------------------|-----------|
|-----------------|-----------------|-------------------|-5----4----|
|-0-0---0---0---0-|---0---0---0---0-|-0-0---0---0-/12\--|-7----5----|
|-----------------|-----------------|-------------/12\--|-----------|


 Bridge - 3:27
  G          A          Bb5  F5/Bb   Bb   Bb5/F
                                     ~~~~~~~~
  W          W          H     H      H     H
|----------|----------|------------|------------|
|----------|----------|------------|------11----|
|-4--------|-6--------|------------|-7----10----|
|-5--------|-7--------|-8----10----|-8-----8----|
|-5--------|-7--------|-8-----8----|-8-----8----|
|-3--------|-5--------|-6-----6----|-6----------|
|----------|----------|------------|------------|


  Eb   Bb5/Eb  Eb/Bb Bbmaj7susB5                C5
                              PM------------------------------|
  H     H       H     H       E E E E E E E E   E E E E E E E E
|------------|--------------|-----------------|-----------------|
|------------|--------------|-----------------|-----------------|
|------------|--------------|-----------------|-----------------|
|-5----------|-/5----/7\----|-4---------------|-----------------|
|-6----/8----|--6-----6-----|-2---------------|-----------------|
|-6-----6----|--6-----6-----|-2-2-2-2-2-2-2-2-|-2-2-2-2-2-2-2-2-|
|-4-----4----|--------------|-0-0-0-0-0-0-0-0-|-0-0-0-0-0-0-0-0-|


   Pre-Chorus - 3:45
    C5
    PM|   PM  PM  PM----|   PM  PM  PM----|   PM  PM  PM----|
    E E E e E e E e   E E E e E e E e   E E E e E e E e   E E E Q  S S E E
||------------------|-----------------|-----------------|-------------------||
||------------------|-----------------|-----------------|-------------------||
||o-----------------|-----------------|-----------------|------------------o||
||------------------|-----------------|-----------------|-------5-----------||
||o-3-3---3---3---3-|-3-3---3---3---3-|-3-3---3---3---3-|-3-3---3------1---o||
||--3-3---3---3---3-|-3-3---3---3---3-|-3-3---3---3---3-|-3-3---3--1h3---3--||
||--1-1---1---1---1-|-1-1---1---1---1-|-1-1---1---1---1-|-1-1---1-----------||


 Chorus - 4:02
  Bb          A           G#          G
 3/4
  Q.   Q.     Q.   Q.     Q.   Q.     Q.   Q.
|-----------|-----------|-----------|-----------|
|-----------|-----------|-----------|-----------|
|-3----5----|-2---------|-1----3----|-0---------|
|-----------|------3----|-----------|------1----|
|-----------|-----------|-----------|-----------|
|-----------|-----------|-----------|-----------|
|-----------|-----------|-----------|-----------|


  Bb          A           G#          G5 A5
                                     2/4
  Q.   Q.     Q.   Q.     Q.   Q.     Q  Q
|-----------|-----------|-----------|-------|
|-----------|-----------|-----------|-------|
|-3----5----|-2---------|-1----3----|-------|
|-----------|------3----|-----------|-5--7--|
|-----------|-----------|-----------|-5--7--|
|-----------|-----------|-----------|-3--5--|
|-----------|-----------|-----------|-------|


 Demonic Interlude - 4:15
  B5                 D5      Eb5                C5
 4/4
   W          +H      H       W          +H      H
|-----------|--------------|-----------|--------------|
|-----------|--------------|-----------|--------------|
|-----------|--------------|-----------|--------------|
|-/4--------|-(4)----------|-/8--------|-(8)----------|
|--2--------|-(2)----/5----|--6--------|-(6)----/3----|
|--2--------|-(2)-----5----|--6--------|-(6)-----3----|
|--0--------|-(0)-----3----|--4--------|-(4)-----1----|


  B5                 D5      Eb5                C#5
   W          +H      H       W          +H     E E Q
|-----------|--------------|-----------|---------------|
|-----------|--------------|-----------|---------------|
|-----------|--------------|-----------|---------------|
|-/4--------|-(4)----------|-/8--------|-(8)-----------|
|--2--------|-(2)----/5----|--6--------|-(6)----4-4----|
|--2--------|-(2)-----5----|--6--------|-(6)----4-4----|
|--0--------|-(0)-----3----|--4--------|-(4)----2-2----|


  B5                D5       Eb5                 C5
  Gtr I
                              ~~~~~~~~~~~~~~~~
  W           H      H        W            W
|----------|---------------|------------|-------------|
|----------|---------------|------------|-------------|
|----------|---------------|------------|-------------|
|----------|---------------|------------|--5\---------|
|----------|--------/5\----|-/6\--------|--6\---------|
|----------|---------------|------------|-------------|
|----------|---------------|------------|-------------|
|
| Gtr II
| W          +H      H        W           +H     H
|----------|---------------|------------|-------------|
|----------|---------------|------------|-------------|
|----------|---------------|------------|-------------|
|----------|---------------|------------|-------------|
|-2--------|-(2)-----5-----|--6---------|-(6)----3----|
|-2--------|-(2)-----5-----|--6---------|-(6)----3----|
|-0--------|-(0)-----3-----|--4---------|-(4)----1----|


  B5                D5     Eb5               C#5
                                              ~~~
  W           W            W           H      H
|----------|-------------|----------|---------------|
|----------|-------------|----------|---------------|
|----------|-------------|----------|---------------|
|----------|-------------|----------|---------------|
|----------|-------------|----------|--------/6\----|
|----------|-------------|----------|--------/6\----|
|----------|-------------|----------|---------------|
|
| W          +H     H      W          +H      H
|----------|-------------|----------|---------------|
|----------|-------------|----------|---------------|
|----------|-------------|----------|---------------|
|----------|-------------|----------|---------------|
|-2--------|-(2)----5----|-6--------|-(6)-----4-----|
|-2--------|-(2)----5----|-6--------|-(6)-----4-----|
|-0--------|-(0)----3----|-4--------|-(4)-----2-----|


 Guitar Solo - 4:51
  C5                      G5          E5                        G5
  ~
  H    +Q.    E   +H      +Q   S E.   S S +H     E E E   +H     +E  S S Q
|---------------|-------------------|------------------|---------------------|
|---------------|-------------------|------------------|---------------------|
|---------------|-------------------|------------------|----------------7----|
|-4----(4)---/5-|-(5)-----(5)--5S7--|-7S4-(4)----4-5-5-|-(5)----(5)-5h9------|
|---------------|-------------------|------------------|---------------------|
|---------------|-------------------|------------------|---------------------|
|---------------|-------------------|------------------|---------------------|
|
| W               +Q.   E  H          W                  +H      H
|---------------|-------------------|------------------|---------------------|
|---------------|-------------------|------------------|---------------------|
|---------------|-------------------|------------------|---------------------|
|---------------|----------5--------|-2----------------|-(2)-----5-----------|
|-3-------------|-(3)---x--5--------|-2----------------|-(2)-----5-----------|
|-3-------------|-(3)---x--3--------|-0----------------|-(0)-----3-----------|
|-1-------------|-(1)---------------|------------------|---------------------|


  C5                               G5
                  |------6-------| |----6----|
  Q.   Q  Q.      E  E E  E E    E E E E E E E
|--------------|-------------------------------|
|--------------|-------------------------------|
|-9----7--9\---|-------------------------------|
|--------------|-----8-7-----------------------|
|--------------|---------10-7---10-7-5---5-7-5-|
|--------------|-----------------------7-------|
|--------------|-------------------------------|
|
| W              +Q.          E    H
|--------------|-------------------------------|
|--------------|-------------------------------|
|--------------|-------------------------------|
|--------------|-------------------------------|
|-3------------|-(3)----------x----5-----------|
|-3------------|-(3)----------x----3-----------|
|-1------------|-(1)---------------------------|


  E5                  E5
  e Q  S S Q.   S S    S   +E. S S Q.    Q
|-------------------|-------------------------|
|-------------------|-------------------------|
|-------------------|-------------------------|
|-5-5---------------|-------------------------|
|------7p5-7--------|-------------------------|
|---------------6p5-|--3b4r(3)-5p3------12\---|
|-------------------|--------------5\---------|
|
| W                    W
|-------------------|-------------------------|
|-------------------|--5----------------------|
|-------------------|--4----------------------|
|-2-----------------|--2----------------------|
|-2-----------------|--2----------------------|
|-0-----------------|-(0)---------------------|
|-------------------|-------------------------|


  C5                                C5                           A5
  E  S S S S S S S S S S S S S  S    T   T  S  S S S  S  T  T  S  S S S  S  T  T  S  S S
|---------------------------------|------------------------------------------------------|
|----------------------------8h10-|-10h=11p10-10---8-10-10h11p10-10---8-10-10h11p10-10---|
|--------------------7---7h9------|--------------9------------------9------------------9-|
|--------5---5h7-7S9---9----------|------------------------------------------------------|
|----5h7---7----------------------|------------------------------------------------------|
|---------------------------------|------------------------------------------------------|
|-5\------------------------------|------------------------------------------------------|
|
| W                                  Q.                  E        H
|---------------------------------|------------------------------------------------------|
|---------------------------------|------------------------------------------------------|
|---------------------------------|--5---------------------------------------------------|
|---------------------------------|--5----------------------------7----------------------|
|-3-------------------------------|--3-------------------x--------7----------------------|
|-3-------------------------------|-(3)------------------x--------5----------------------|
|-1-------------------------------|-(1)--------------------------------------------------|


  E5                                 Bmadd11/E
           ~~~~
                                      |-3--|
  S  S S   Q.    S.  S.  S.  S.  S    E  E E  e  e Q.   E
|--------/12----10------10---------|-------------------------|
|-8-10-8------------12------11--10-|--8----8-10-12-8----8/---|
|----------------------------------|-----9-------------------|
|----------------------------------|-------------------------|
|----------------------------------|-------------------------|
|----------------------------------|-------------------------|
|----------------------------------|-------------------------|
|
| W                                   W
|----------------------------------|-------------------------|
|----------------------------------|--3----------------------|
|-4--------------------------------|--4----------------------|
|-2--------------------------------|--2----------------------|
|-2--------------------------------|--2----------------------|
|-0--------------------------------|-(0)---------------------|
|----------------------------------|-------------------------|


  C
   |--------6--------|  |--------6--------|  |-------6--------|  |------6-------|
   S  S  S  T  T  S  S  S  T  T  S  S  S  S  T  T  S  S  S  S S  S  S  S   S  S S
|-15p12----14h15-14-12----10h12-10----------10-12-10------------------12-(12)-----|
|-------13-------------13-------------13p12----------13p12-10------13------8----8-|
|----------------------------------12-------------------------9-12------------9---|
|---------------------------------------------------------------------------------|
|---------------------------------------------------------------------------------|
|---------------------------------------------------------------------------------|
|---------------------------------------------------------------------------------|
|
|  W
|---------------------------------------------------------------------------------|
|---------------------------------------------------------------------------------|
|--0------------------------------------------------------------------------------|
|--2------------------------------------------------------------------------------|
|--3------------------------------------------------------------------------------|
|--0------------------------------------------------------------------------------|
|--1------------------------------------------------------------------------------|


  C                                   G5
   |--------6--------| |-----6------|  |------6------|  |------6------|
   S    S   S  S  S  S S  S S  S  S S  S  S  S S  S  S  S  S  S S  S  S
|-10--(10)----------------------------------------------------------------|
|-------8-----10----------------------------------------------------------|
|----------11----12-11-9-11-9----11-9-------------------------------------|
|-----------------------------12------12---------------12-----------------|
|----------------------------------------12-10-9-10-12----12-10-9---------|
|-----------------------------------------------------------------12-10---|
|-------------------------------------------------------------------------|
|
|  Q.                          E       H
|--3----------------------------------------------------------------------|
|--5----------------------------------------------------------------------|
|--5----------------------------------------------------------------------|
|--2----------------------------------------------------------------------|
|------------------------------x-------5----------------------------------|
|------------------------------x-------3----------------------------------|
|-(1)---------------------------------------------------------------------|


  E5                             E5
       |-3--|  |-3--|  |--3--|
   Q   E  E E  E E  E  E  E  E    H.           Q
|---------------------12----12-|-12pb14r=====(12)--|
|-------------12---12----12----|-------------------|
|-----------9----9-------------|-------------------|
|------------------------------|-------------------|
|------------------------------|--------------14\--|
|-12--10S12--------------------|--------------12\--|
|------------------------------|-------------------|
|
|  W                              W
|------------------------------|-------------------|
|------------------------------|--5----------------|
|--4---------------------------|--4----------------|
|--2---------------------------|--2----------------|
|--2---------------------------|--2----------------|
|--0---------------------------|-(0)---------------|
|------------------------------|-------------------|


  Csus2/G                G5
   W               H      H
|-14pb15r=======|=14S====12-----|
|---------------|---------------|
|---------------|---------------|
|---------------|---------------|
|---------------|---------------|
|---------------|---------------|
|---------------|---------------|
|
|  W              +H      H
|---------------|---------------|
|---------------|---------------|
|--7------------|-(7)-----------|
|--5------------|-(5)-----5\----|
|--3------------|-(3)-----5\----|
|--3------------|-(3)-----3\----|
|---------------|---------------|


 Keyboard Solo - 5:30
  Em                       D5/C
   W           W           W            W
|-10S=======|==6S========|=3\--------|--------|
|-----------|------------|-----------|--------|
|-----------|------------|-----------|--------|
|-----------|------------|-----------|--------|
|-----------|------------|-----------|--------|
|-----------|------------|-----------|--------|
|-----------|------------|-----------|--------|
|
|                          <
|  W          +W           W           +W
|-----------|------------|-----------|--------|
|-----------|------------|-3---------|-(3)----|
|--0--------|-(0)--------|-2---------|-(2)----|
|--2--------|-(2)--------|-0---------|-(0)----|
|--2--------|-(2)--------|-3---------|-(3)----|
|--0--------|-(0)--------|-----------|--------|
|-----------|------------|-----------|--------|


  Em7                     G5/C
  Gtr II
  <
  W          +W            W          +W
|----------|------------|-^3--------|-(3)----|
|-3--------|-(3)--------|-^3--------|-(3)----|
|-0--------|-(0)--------|-^0--------|-(0)----|
|-2--------|-(2)--------|-^0--------|-(0)----|
|-2--------|-(2)--------|-^3--------|-(3)----|
|-0--------|-(0)--------|-----------|--------|
|----------|------------|-----------|--------|


  Em                      G5/C                C5
  W          +W           W          +H.      Q
|----------|------------|----------|--------------|
|-0--------|-(0)--------|-3--------|-(3)----------|
|-0--------|-(0)--------|-0--------|-(0)----------|
|-2--------|-(2)--------|-0--------|-(0)------5\--|
|-2--------|-(2)--------|-3--------|-(3)------3\--|
|-0--------|-(0)--------|----------|--------------|
|----------|------------|----------|--------------|


  Q=115
  E5
    PM----------------------------|
  E E E E E E E E   E E E E E E E E
|-----------------|-----------------|
|-----------------|-----------------|
|-4---------------|-----------------|
|-2-2-2-2-2-2-2-2-|-2-2-2-2-2-2-2-2-|
|-2-2-2-2-2-2-2-2-|-2-2-2-2-2-2-2-2-|
|-0-0-0-0-0-0-0-0-|-0-0-0-0-0-0-0-0-|
|-----------------|-----------------|


  G5
  E S S S S E E S S S S E   E S S S S E E S S S S E
|-------3-----------3-----|-------3-----------3-----|
|-------------------------|-------------------------|
|-------------------------|-------------------------|
|-------------------------|-------------------------|
|-------------------------|-------------------------|
|-3-3-3---3-3-3-3-3---3-3-|-3-3-3---3-3-3-3-3---3-3-|
|-------------------------|-------------------------|


  Bb5
  E S S S S E E S S S S E   E S S S S E E S S S S E
|-------6-----------6-----|-------6-----------6--------|
|-------------------------|----------------------------|
|-------------------------|----------------------------|
|-------------------------|----------------------------|
|-------------------------|----------------------------|
|-6-6-6---6-6-6-6-6---6-6-|-6-6-6---6-6-6-6-6---6-6----|
|-------------------------|----------------------------|


  Eb5
  E S S S S E E S S S S E   E S S S S E E S S S S E
|-------------------------|-------------------------|
|-------------------------|-------------------------|
|-------8-----------8-----|-------8-----------8-----|
|-------------------------|-------------------------|
|-6-6-6---6-6-6-6-6---6-6-|-6-6-6---6-6-6-6-6---6-6-|
|-------------------------|-------------------------|
|-------------------------|-------------------------|


  B5                C5
  PM------------------------------|
  E E E E E E E E   E E E E E E E E
|-----------------|------------------|
|-----------------|------------------|
|-----------------|------------------|
|-4---------------|------------------|
|-2---------------|------------------|
|-2-2-2-2-2-2-2-2-|-2-2-2-2-2-2-2-2--|
|-0-0-0-0-0-0-0-0-|-0-0-0-0-0-0-0-0--|


   Pre-Chorus - 6:17
    C5
    PM|   PM  PM  PM----|   PM  PM  PM----|   PM  PM  PM----|
    E E E e E e E e   E E E e E e E e   E E E e E e E e   E E E Q  S S E E
||------------------|-----------------|-----------------|-------------------||
||------------------|-----------------|-----------------|-------------------||
||o-----------------|-----------------|-----------------|------------------o||
||------------------|-----------------|-----------------|-------5-----------||
||o-3-3---3---3---3-|-3-3---3---3---3-|-3-3---3---3---3-|-3-3---3------1---o||
||--3-3---3---3---3-|-3-3---3---3---3-|-3-3---3---3---3-|-3-3---3--1h3---3--||
||--1-1---1---1---1-|-1-1---1---1---1-|-1-1---1---1---1-|-1-1---1-----------||


 Chorus - 6:35
  Bb          A           G#          G
 3/4
  Q.   Q.     Q.   Q.     Q.   Q.     Q.   Q.
|-----------|-----------|-----------|-----------|
|-----------|-----------|-----------|-----------|
|-3----5----|-2---------|-1----3----|-0---------|
|-----------|------3----|-----------|------1----|
|-----------|-----------|-----------|-----------|
|-----------|-----------|-----------|-----------|
|-----------|-----------|-----------|-----------|


  Bb          A           G#          C5 D5
                                     2/4
  Q.   Q.     Q.   Q.     Q.   Q.     Q  Q
|-----------|-----------|-----------|-------|
|-----------|-----------|-----------|-------|
|-3----5----|-2---------|-1----3----|-5--7--|
|-----------|------3----|-----------|-5--7--|
|-----------|-----------|-----------|-3--5--|
|-----------|-----------|-----------|-------|
|-----------|-----------|-----------|-------|


 Ending - 6:48
  E5                B5/FBb5/F   E5                        B5/FBb5/F
 4/4
                                PM----------------------|
  W          H    E E E E   +E  E E E E E E E   E E E E E E E E
|----------|--------------|-------------------|-----------------|
|----------|--------------|-------------------|-----------------|
|----------|--------------|-------------------|-----------------|
|----------|--------------|-------------------|-----------------|
|----------|--------------|-----7-------------|-----------------|
|----------|--------7-x-6-|-(6)-7-0-0-0-0-0-0-|-0-0-0-0-0-7-x-6-|
|----------|--------7-x-6-|-(6)-5-------------|-----------7-x-6-|


      E5                        B5/FBb5/F   E5                        B5/FBb5/F
      PM----------------------|             PM----------------------|
  +E  E E E E E E E   E E E E E E E E   +E  E E E E E E E   E E E E E E E E
|-------------------|-----------------|-------------------|-----------------|
|-------------------|-----------------|-------------------|-----------------|
|-------------------|-----------------|-------------------|-----------------|
|-------------------|-----------------|-------------------|-----------------|
|-----7-------------|-----------------|-----7-------------|-----------------|
|-(6)-7-0-0-0-0-0-0-|-0-0-0-0-0-7-x-6-|-(6)-7-0-0-0-0-0-0-|-0-0-0-0-0-7-x-6-|
|-(6)-5-------------|-----------7-x-6-|-(6)-5-------------|-----------7-x-6-|


      E5                        B/F#Bb/F    E5                        B/F#Bb/F
      PM----------------------|             PM----------------------|
  +E  E E E E E E E   E E E E E E E E   +E  E E E E E E E   E E E E E E E E
|-------------------|-----------------|-------------------|-----------------|
|-------------------|-----------------|-------------------|-----------------|
|-------------------|-----------------|-------------------|-----------------|
|-------------------|-----------------|-------------------|-----------------|
|-----7-------------|-----------6-x-5-|-(5)-7-------------|-----------6-x-5-|
|-(6)-7-0-0-0-0-0-0-|-0-0-0-0-0-7-x-6-|-(6)-7-0-0-0-0-0-0-|-0-0-0-0-0-7-x-6-|
|-(6)-5-------------|-----------7-x-6-|-(6)-5-------------|-----------7-x-6-|


      E5                        B/F#Bb/F
      PM----------------------|
  +E  E E E E E E E   E E E E E E E E
|-------------------|-----------------|
|-------------------|-----------------|
|-------------------|-----------------|
|-------------------|-----------------|
|-(5)-7-------------|-----------6-x-5-|
|-(6)-7-0-0-0-0-0-0-|-0-0-0-0-0-7-x-6-|
|-(6)-5-------------|-----------7-x-6-|


      E5                        B5/FBb5/F
      PM----------------------|
  +E  E E E E E E E   E E E E E E E E   +Q   Q  Q  Q
|-------------------|-----------------|---------------*|
|-------------------|-----------------|---------------*|
|-------------------|-----------------|---------------*|
|-------------------|-----------9---8-|-(8)-----------*|
|-(5)-7-------------|-----------------|---------------*|
|-(6)-7-0-0-0-0-0-0-|-0-0-0-0-0-7-x-6-|-(6)-----------*|
|-(6)-5-------------|-----------7-x-6-|---------------*|



Duration Legend
---------------
W - whole; H - half; Q - quarter; E - 8th; S - 16th; T - 32nd; X - 64th; a - acciaccatura
+ - note tied to previous; . - note dotted; .. - note double dotted
Uncapitalized letters represent notes that are staccato (1/2 duration)
Irregular groupings are notated above the duration line
Duration letters will always appear directly above the note/fret number it represents the
duration for.  Duration letters with no fret number below them represent rests.  Multi-
bar rests are notated in the form Wxn, where n is the number of bars to rest for.  Low
melody durations appear below the staff

Tablature Legend
----------------
 h   - hammer-on
 p   - pull-off
 b   - bend
 pb  - pre-bend
 r   - bend release (if no number after the r, then release immediately)
 /\  - slide into or out of (from/to "nowhere")
 s   - legato slide
 S   - shift slide
 - natural harmonic
[n]  - artificial harmonic
n(n) - tapped harmonic
 ~   - vibrato
 tr  - trill
 T   - tap
 TP  - trem. picking
 PM  - palm muting
\n/  - tremolo bar dip; n = amount to dip
 \n  - tremolo bar down
 n/  - tremolo bar up
/n\  - tremolo bar inverted dip
 =   - hold bend; also acts as connecting device for hammers/pulls
 <> - volume swell (louder/softer)
 x   - on rhythm slash represents muted slash
 o   - on rhythm slash represents single note slash

Misc Legend
-----------
 |  - bar
||  - double bar
||o - repeat start
o|| - repeat end
*|  - double bar (ending)
 :  - bar (freetime)
 $  - Segno
 &  - Coda
Tempo markers -  = BPM(8/16=s8/s16), where s8 = swing 8ths, s16 = swing 16ths





Comments


Popular Pagans Mind tabs & chords
Approaching Bass Tabs
Back To The Magic Of Childhood Conception Part 1 Bass Tabs
Back To The Magic Of Childhood Exploring Life Part 2 2 Bass Tabs
Through Osiris' Eyes Bass Tabs
Approaching Tabs
Back To The Magic Of Childhood Conception Part 1 Tabs
Back To The Magic Of Childhood Exploring Life Part 2 Tabs
Enigmatic Mission Intro Tabs
Hallo Spaceboy Tabs
United Alliance Tabs


Song lyrics



↑ Back to top | Tablatures and chords are parodies/interpretations of the original songs. You may use it for private study, scholarship, research or language learning purposes only
© 2014 AZChords.com Contact us | Privacy policy | DMCA | Add/correct tabs | Request tabs | Top 50 tabs