>
 >
Back To The Magic Of Childhood Conception Part 1

Back To The Magic Of Childhood Conception Part 1 Bass Tabs

Pagans Mind - Back To The Magic Of Childhood Conception Part 1 chords, tabs, tablatures, lyrics

Guitar lessons | Add/correct | Request | Top 50 tabs Artists:  A B C D E F G H I J K L M N O P Q R S T U V W X Y Z 0-9

Back To The Magic Of Childhood Conception Part 1 Bass Tabs – Pagans Mind

CD, Sheet music, Poster

Do you like Back To The Magic Of Childhood Conception Part 1? Share with your friends now
Bass TabsTabs

BACK TO THE MAGIC OF CHILDHOOD: PART 1, CONCEPTION (Bassline)
As recorded by Pagan's Mind
(From the 2002 Album CELESTIAL ENTRANCE)

	

Words by (instrumental) Music by Pagan's Mind
Arranged by Pagan's Mind

Gtr I (B E A D G B) - 'Bass Guitar'
Gtr II (B E A D G B E) - 'Keyboard'

 Guitar Intro - 0:00
  Q=190
 5/4
  Gtr I
  Wx12
|---------|
|---------|
|---------|
|---------|
|---------|
|---------|


  W        +Q     +W         +Q     W        +Q     +W         Q
|---------------|-----------------|---------------|-----------------|
|---------------|-----------------|---------------|-----------------|
|-2--------(2)--|-(2)--------(2)--|---------------|-----------------|
|---------------|-----------------|---------------|-----------------|
|---------------|-----------------|-2--------(2)--|-(2)--------2S===|
|---------------|-----------------|---------------|-----------------|


  W        +Q     +W         +Q     W        +Q     +W         +Q
|---------------|-----------------|---------------|------------------|
|---------------|-----------------|---------------|------------------|
|---------------|-----------------|---------------|------------------|
|---------------|-----------------|---------------|------------------|
|-8--------(8)--|-(8)--------(8)--|-6--------(6)--|-(6)--------(6)---|
|---------------|-----------------|---------------|------------------|


  W        +Q     +W         +Q     q.   Q.   +Q   +Q     +W         +Q
|---------------|-----------------|---------------------|------------------|
|---------------|-----------------|---------------------|------------------|
|---------------|-----------------|---------------------|------------------|
|---------------|-----------------|---------------------|------------------|
|-4--------(4)--|-(4)--------(4)--|-3----3----(3)--(3)--|-(3)--------(3)---|
|---------------|-----------------|---------------------|------------------|


  q.   Q.   Q  Q    q.   Q.   Q  Q
|-----------------|-----------------|
|-----------------|-----------------|
|-----------------|-----------------|
|-----------------|-----------------|
|-3----3----3--3--|-3----3----3--3--|
|-----------------|-----------------|


 Guitar Solo - 0:41
  W        +Q     +H.      H       W         +Q      +H.       Q   Q
|---------------|---------------|-----------------|--------------------|
|---------------|---------------|-----------------|--------------------|
|---------------|---------------|-----------------|--------------------|
|---------------|---------------|-----------------|-----------12-------|
|-1--------(1)--|-(1)------8S===|=13--------(13)--|-(13)----------13---|
|---------------|---------------|-----------------|--------------------|


   W         +Q      +H.      H      W        +Q     Q.   Q.   Q  Q
|-----------------|----------------|---------------|------------------|
|-----------------|----------------|---------------|------------------|
|-----------------|----------------|---------------|------------------|
|-----------------|----------------|---------------|------0----2------|
|-12--------(12)--|-(12)------7S===|=0--------(0)--|-3------------3---|
|-----------------|----------------|---------------|------------------|


  W        +Q     +H.      H       W         +Q      +H      Q   H
|---------------|---------------|-----------------|-------------------|
|---------------|---------------|-----------------|-------------------|
|---------------|---------------|-----------------|-------------------|
|---------------|---------------|-----------------|---------12--------|
|-1--------(1)--|-(1)------8S===|=13--------(13)--|-(13)--------13----|
|---------------|---------------|-----------------|-------------------|


  Q.   Q.   Q  Q    Q.   Q.   Q  Q    W        +Q     +W         +Q
|-----------------|-----------------|---------------|------------------|
|-----------------|-----------------|---------------|------------------|
|-----------------|-----------------|---------------|------------------|
|-7----5----------|-----------------|---------------|------------------|
|-----------7--5--|-3----2----0--3--|-2--------(2)--|-(2)--------(2)---|
|-----------------|-----------------|---------------|------------------|


 Enter Band - 1:07
  W        +Q     +W         +Q     W        +Q     +W         +Q
|---------------|-----------------|---------------|------------------|
|---------------|-----------------|---------------|------------------|
|---------------|-----------------|---------------|------------------|
|---------------|-----------------|---------------|------------------|
|-8--------(8)--|-(8)--------(8)--|-6--------(6)--|-(6)--------(6)---|
|---------------|-----------------|---------------|------------------|


  W        +Q     +W         +Q     W        +Q     +W         +Q
|---------------|-----------------|---------------|------------------|
|---------------|-----------------|---------------|------------------|
|---------------|-----------------|---------------|------------------|
|---------------|-----------------|---------------|------------------|
|-4--------(4)--|-(4)--------(4)--|-3--------(3)--|-(3)--------(3)---|
|---------------|-----------------|---------------|------------------|


  q.   Q.   Q  Q    q.   Q.   Q  Q
|-----------------|-----------------|
|-----------------|-----------------|
|-----------------|-----------------|
|-----------------|-----------------|
|-3----3----3--3--|-3----3----3--3--|
|-----------------|-----------------|


  E E E Q  E q  q    W        +Q     E E E Q  E q  q    W        +Q
|------------------|---------------|------------------|----------------|
|------------------|---------------|------------------|----------------|
|------------------|---------------|------------------|----------------|
|------------------|---------------|------------------|----------------|
|-1-1-1-1--1-1--1--|-1--------(1)--|-1-1-1-1--1-1--1--|-1--------(1)---|
|------------------|---------------|------------------|----------------|


  E E E Q  E q  q    W        +Q     E E E Q  E q  q    W        +Q
|------------------|---------------|------------------|----------------|
|------------------|---------------|------------------|----------------|
|------------------|---------------|------------------|----------------|
|------------------|---------------|------------------|----------------|
|-0-0-0-0--0-0--0--|-0--------(0)--|-0-0-0-0--0-0--0--|-0--------(0)---|
|------------------|---------------|------------------|----------------|


    E  E E  Q   E   q   q      W               +Q
|--------------------------|------------------------|
|--------------------------|------------------------|
|--------------------------|------------------------|
|--------------------------|------------------------|
|---1--1-1--1---1---1---1--|---1---------------(1)--|
|--------------------------|------------------------|
|
| Gtr II
|   Q.      Q.      Q   Q      Q.    Q.     Q   Q
|-/22------20-----/24--20--|-/22----20----/24--20---|
|--------------------------|------------------------|
|--------------------------|------------------------|
|--------------------------|------------------------|
|--------------------------|------------------------|
|--------------------------|------------------------|
|--------------------------|------------------------|


    E  E E  Q   E   q   q      W               +Q
|--------------------------|-------------------------|
|--------------------------|-------------------------|
|--------------------------|-------------------------|
|--------------------------|-------------------------|
|---1--1-1--1---1---1---1--|---1---------------(1)---|
|--------------------------|-------------------------|
|
|   Q.      Q.      Q   Q      Q.    Q.     H
|-/22------20-----/24--20--|-/22----20----/24--------|
|--------------------------|-------------------------|
|--------------------------|-------------------------|
|--------------------------|-------------------------|
|--------------------------|-------------------------|
|--------------------------|-------------------------|
|--------------------------|-------------------------|


    E  E E  Q   E  q   q     W         +Q
|-------------------------|-----------------|
|-------------------------|-----------------|
|-------------------------|-----------------|
|-------------------------|-----------------|
|---0--0-0--0---0--0---0--|--0---------(0)--|
|-------------------------|-----------------|
|
|   Q.      Q.     Q   Q     W         +Q
|-/22---------------------|-22--------(22)--|
|----------24-----22--24--|-----------------|
|-------------------------|-----------------|
|-------------------------|-----------------|
|-------------------------|-----------------|
|-------------------------|-----------------|
|-------------------------|-----------------|


    E  E E  Q   E  q   q     W         +Q
|-------------------------|------------------|
|-------------------------|------------------|
|-------------------------|------------------|
|-------------------------|------------------|
|---2--2-2--2---2--2---2--|--2---------(2)---|
|-------------------------|------------------|
|
|   Q.      Q.     Q   Q     W         +Q
|-/24---------------------|-24--------(24)---|
|----------24-----23------|------------------|
|---------------------23--|------------------|
|-------------------------|------------------|
|-------------------------|------------------|
|-------------------------|------------------|
|-------------------------|------------------|


  E E E q  E q  q    E E E q  E q  q    E E E q  E q  q    E E E q  E q  q
|------------------|------------------|------------------|-------------------|
|------------------|------------------|------------------|-------------------|
|------------------|------------------|------------------|-------------------|
|------------------|------------------|------------------|-------------------|
|-8-8-8-8--8-8--8--|-8-8-8-8--8-8--8--|-6-6-6-6--6-6--6--|-6-6-6-6--6-6--6---|
|------------------|------------------|------------------|-------------------|
|
| W             Q    W             Q    W             Q    W             Q
|------------------|------------------|------------------|-------------------|
|------------------|------------------|------------------|-------------------|
|------------------|------------------|------------------|-------------------|
|------------------|------------------|------------------|-------------------|
|------------------|------------------|------------------|-------------------|
|------------------|------------------|------------------|-------------------|
|------------------|------------------|------------------|-------------------|


  E E E q  E q  q    E E E q  E q  q    E E E q  E q  q    E E E q  E q  q
|------------------|------------------|------------------|-------------------|
|------------------|------------------|------------------|-------------------|
|------------------|------------------|------------------|-------------------|
|------------------|------------------|------------------|-------------------|
|-4-4-4-4--4-4--4--|-4-4-4-4--4-4--4--|-3-3-3-3--3-3--3--|-3-3-3-3--3-3--3---|
|------------------|------------------|------------------|-------------------|
|
| W             Q    W             Q    W             Q    W             Q
|------------------|------------------|------------------|-------------------|
|------------------|------------------|------------------|-------------------|
|------------------|------------------|------------------|-------------------|
|------------------|------------------|------------------|-------------------|
|------------------|------------------|------------------|-------------------|
|------------------|------------------|------------------|-------------------|
|------------------|------------------|------------------|-------------------|


  E E E q  E q  q    E E E q  E q  q
|------------------|-------------------|
|------------------|-------------------|
|------------------|-------------------|
|------------------|-------------------|
|-3-3-3-3--3-3--3--|-3-3-3-3--3-3--3S==|
|------------------|-------------------|
|
| W             Q    W             Q
|------------------|-------------------|
|------------------|-------------------|
|------------------|-------------------|
|------------------|-------------------|
|------------------|-------------------|
|------------------|-------------------|
|------------------|-------------------|


    E  E E  q   E  q   Q      E  E E  q   E  q   Q
|-------------------------|-------------------------|
|-------------------------|-------------------------|
|----------------------3--|----------------------3--|
|-------------------------|-------------------------|
|---1--1-1--1---1--1---1--|---1--1-1--1---1--1---1--|
|-------------------------|-------------------------|
|
|   Q.      Q.     Q   Q      Q.      Q.     Q   Q
|-------------------------|-------------------------|
|-/12------10-----13--10--|-/12------10-----13--10--|
|-------------------------|-------------------------|
|-------------------------|-------------------------|
|-------------------------|-------------------------|
|-------------------------|-------------------------|
|-------------------------|-------------------------|


    E  E E  q   E  q   Q      E  E E  q   E  q  Q
|-------------------------|-------------------------|
|-------------------------|-------------------------|
|----------------------3--|---------------------3---|
|-------------------------|-------------------------|
|---1--1-1--1---1--1---1--|---1--1-1--1---1--1--1---|
|-------------------------|-------------------------|
|
|   Q.      Q.     Q   Q      Q.      Q.     H
|-------------------------|-------------------------|
|-/12------10-----13--10--|-/12------10-----13------|
|-------------------------|-------------------------|
|-------------------------|-------------------------|
|-------------------------|-------------------------|
|-------------------------|-------------------------|
|-------------------------|-------------------------|


    E  E E Q   E q  q      E  E E Q   E q  q
|----------------------|----------------------|
|----------------------|----------------------|
|----------------------|----------------------|
|----------------------|----------------------|
|---0--0-0-0---0-0--0--|---0--0-0-0---0-0--0--|
|----------------------|----------------------|
|
|   Q.     Q.    Q  Q      Q.     Q.    Q  Q
|-/10------------------|-/10------------------|
|----------8-----7--8--|----------8-----7--8--|
|----------------------|----------------------|
|----------------------|----------------------|
|----------------------|----------------------|
|----------------------|----------------------|
|----------------------|----------------------|


    E  E E Q   E q  q      E  E E Q   E q  q
|----------------------|-----------------------|
|----------------------|-----------------------|
|----------------------|-----------------------|
|----------------------|-----------------------|
|---0--0-0-0---0-0--0--|---0--0-0-0---0-0--0---|
|----------------------|-----------------------|
|
|   Q.     Q.    Q  Q      Q.     Q.    Q  Q
|-/10------------------|-/10-------------------|
|----------8-----7--8--|----------8-----7--8---|
|----------------------|-----------------------|
|----------------------|-----------------------|
|----------------------|-----------------------|
|----------------------|-----------------------|
|----------------------|-----------------------|


    E  E E  q   E  q   Q      E  E E  q   E  q   Q
|-------------------------|-------------------------|
|-------------------------|-------------------------|
|----------------------3--|----------------------3--|
|-------------------------|-------------------------|
|---1--1-1--1---1--1---1--|---1--1-1--1---1--1---1--|
|-------------------------|-------------------------|
|
|   Q.      Q.     Q   Q      Q.      Q.     Q   Q
|-------------------------|-------------------------|
|-/12------10-----13--10--|-/12------10-----13--10--|
|-------------------------|-------------------------|
|-------------------------|-------------------------|
|-------------------------|-------------------------|
|-------------------------|-------------------------|
|-------------------------|-------------------------|


    E  E E  q   E  q   Q      E  E E  q   E  q  Q
|-------------------------|-------------------------|
|-------------------------|-------------------------|
|----------------------3--|---------------------3---|
|-------------------------|-------------------------|
|---1--1-1--1---1--1---1--|---1--1-1--1---1--1--1---|
|-------------------------|-------------------------|
|
|   Q.      Q.     Q   Q      Q.      Q.     H
|-------------------------|-------------------------|
|-/12------10-----13--10--|-/12------10-----13------|
|-------------------------|-------------------------|
|-------------------------|-------------------------|
|-------------------------|-------------------------|
|-------------------------|-------------------------|
|-------------------------|-------------------------|


    E  E E Q   E q  q      E E E Q  E q    q
|----------------------|-----------------------|
|----------------------|-----------------------|
|----------------------|-----------------------|
|----------------------|-----------------------|
|---0--0-0-0---0-0--0--|---0-0-0-0--0-0----0---|
|----------------------|-----------------------|
|
|   Q.     Q.    Q  Q      W              +Q
|-/10------------------|-/10-------------(10)--|
|----------8-----7--8--|-----------------------|
|----------------------|-----------------------|
|----------------------|-----------------------|
|----------------------|-----------------------|
|----------------------|-----------------------|
|----------------------|-----------------------|


    E  E E  Q   E  q   q    E  E E Q   E q  q
|-------------------------|---------------------|
|-------------------------|---------------------|
|-------------------------|---------------------|
|-------------------------|---------------------|
|---2--2-2--2---2--2---2--|-2--2-2-2---2-2--2---|
|-------------------------|---------------------|
|
|   Q.      Q.     Q   Q    Q.     Q.    Q  Q
|-/12---------------------|---------------------|
|----------12-----11------|---------------------|
|---------------------11--|-9-------------------|
|-------------------------|--------9-----8------|
|-------------------------|-----------------9---|
|-------------------------|---------------------|
|-------------------------|---------------------|


 Ending - 2:30
  E E E Q  E q  q    E E E Q  E q  q    E E E Q  E q  q    E E E Q  E q  q
|------------------|------------------|------------------|-------------------|
|------------------|------------------|------------------|-------------------|
|------------------|------------------|------------------|-------------------|
|------------------|------------------|-1-1-1-1--1-1--1--|-1-1-1-1--1-1--1---|
|------------------|------------------|------------------|-------------------|
|-1-1-1-1--1-1--1--|-1-1-1-1--1-1--1--|------------------|-------------------|


  E E E q  E q  q    E E E q  E q  q    E E E q  E q  q    E E E q  E q  q
|------------------|------------------|------------------|-------------------|
|------------------|------------------|------------------|-------------------|
|------------------|------------------|------------------|-------------------|
|------------------|------------------|------------------|-------------------|
|-4-4-4-4--4-4--4--|-4-4-4-4--4-4--4--|-3-3-3-3--3-3--3--|-3-3-3-3--3-3--3---|
|------------------|------------------|------------------|-------------------|


  E E E q  E q  q    E E E q  E q  q
|------------------|------------------*|
|------------------|------------------*|
|------------------|------------------*|
|------------------|------------------*|
|-3-3-3-3--3-3--3--|-3-3-3-3--3-3--3--*|
|------------------|------------------*|



Duration Legend
---------------
W - whole; H - half; Q - quarter; E - 8th; S - 16th; T - 32nd; X - 64th; a - acciaccatura
+ - note tied to previous; . - note dotted; .. - note double dotted
Uncapitalized letters represent notes that are staccato (1/2 duration)
Irregular groupings are notated above the duration line
Duration letters will always appear directly above the note/fret number it represents the
duration for.  Duration letters with no fret number below them represent rests.  Multi-
bar rests are notated in the form Wxn, where n is the number of bars to rest for.  Low
melody durations appear below the staff

Tablature Legend
----------------
 h   - hammer-on
 p   - pull-off
 b   - bend
 pb  - pre-bend
 r   - bend release (if no number after the r, then release immediately)
 /\  - slide into or out of (from/to "nowhere")
 s   - legato slide
 S   - shift slide
 - natural harmonic
[n]  - artificial harmonic
n(n) - tapped harmonic
 ~   - vibrato
 tr  - trill
 T   - tap
 TP  - trem. picking
 PM  - palm muting
\n/  - tremolo bar dip; n = amount to dip
 \n  - tremolo bar down
 n/  - tremolo bar up
/n\  - tremolo bar inverted dip
 =   - hold bend; also acts as connecting device for hammers/pulls
 <> - volume swell (louder/softer)
 x   - on rhythm slash represents muted slash
 o   - on rhythm slash represents single note slash

Misc Legend
-----------
 |  - bar
||  - double bar
||o - repeat start
o|| - repeat end
*|  - double bar (ending)
 :  - bar (freetime)
 $  - Segno
 &  - Coda
Tempo markers -  = BPM(8/16=s8/s16), where s8 = swing 8ths, s16 = swing 16ths





Comments


Popular Pagans Mind tabs & chords
Aegan Shores Bass Tabs
Back To The Magic Of Childhood Exploring Life Part 2 Bass Tabs
Back To The Magic Of Childhood Exploring Life Part 2 2 Bass Tabs
Dimensions Of Fire Bass Tabs
Walk Away In Silence Bass Tabs
Aegan Shores Tabs
Approaching Tabs
Dimensions Of Fire Tabs
Enigmatic Mission Intro Tabs
Hallo Spaceboy Tabs


Song lyrics



↑ Back to top | Tablatures and chords are parodies/interpretations of the original songs. You may use it for private study, scholarship, research or language learning purposes only
© 2014 AZChords.com Contact us | Privacy policy | DMCA | Add/correct tabs | Request tabs | Top 50 tabs