» » »

Sweet Suburban Sky Tabs (ver.2)

Artists:  A B C D E F G H I J K L M N O P Q R S T U V W X Y Z # 

Sweet Suburban Sky Tabs (ver.2)

Paddy Casey
Rating:
0/5 (0 votes)

Hard to play? Try these video lessons and learn fast.
                I think its standard tuning, put the capo on the 2nd fret.

This is the intro, he plays it a few times...

(it revolves around the chord of Em)

|-----------0---------------------0----------0---|
|-----------0-----0---------------0----------0---|
|------------------------------------------------|
|------2-----------------------------0/2---------|
|-----------------------0/2----------------------|
|--0---------------------------------------------|

(then he upstrokes this chord)

|----2--------------------------------------------|
|----0--------------------------------------------|
|----0--------------------------------------------|
|----2--------------------------------------------|
|----X--------------------------------------------|
|----X--------------------------------------------|

'sweet suburban sky...... gonna'
   Em    D          G
|--------------------------------------------------|
|------------------------0-------------------------|
|--0--------2--------------------------0------0----|
|------2--------0--------------------------0-------|
|--------------------------------------------------|
|--0--------2----------3---------------------------|

'miss you if you burn out'
   C        Cb       Am
|-----------------------------------------|
|--1---------0----------------------------|
|--------0--------0----2-------------2----|
|--------------------------------2--------|
|--3---------2---------0------------------|
|-----------------------------------------|


     G          D        Em
|---------------------------------------------------0-----------0----|
|-----0---------------------------------------------0-----------0----|
|--0--------0---2------------0---------------------------------------|
|------------------------0----------2---------------------0/2--------|
|--------------------------------------------0/2---------------------|
|-----3---------2------------0----------0----------------------------|


When the line 'your body for one precious taste' comes in,
 the 'C, Cb, Am' bit slightly changes to;

   C         Cb         Am
|--0----------------------------------------------|
|-------3-----3-----0----1------------------------|
|---------------------------------2-------2-------|
|-------------------------------------2-----------|
|--3----------2----------0------------------------|
|-------------------------------------------------|

...and then back to the usual;

     G          D        Em
|---------------------------------------------------0-----------0----|
|-----0---------------------------------------------0-----------0----|
|--0--------0---2------------0---------------------------------------|
|------------------------0----------2---------------------0/2--------|
|--------------------------------------------0/2---------------------|
|-----3---------2------------0----------0----------------------------|

after every verse, i think he does the upstroke Em strum,
it sounds good anyway!! Njoy ;p
            
Hard to play? Try these video lessons and learn fast. | Correct




comments powered by Disqus
↑ Back to top | Tablatures and chords are parodies/interpretations of the original songs. You may use it for private study, scholarship, research or language learning purposes only