» » »

Saints And Sinners Tabs (ver.1)

Artists:  A B C D E F G H I J K L M N O P Q R S T U V W X Y Z # 

Saints And Sinners Tabs (ver.1)

Paddy Casey
Rating:
4/5 (3 votes)

Hard to play? Try these video lessons and learn fast.
                -----------------------------------------------------------------------
                             Saints & Sinners - Paddy Casey              
--------------------------------------------------------------------

YEAH IRELAND 

This is the nearest tab to the way Paddy Casey plays it live.  The strum pattern is
fairly handy and shouldn't take you too long to figure.  Enjoy 

Tuning: Standard   Capo 4th Fret  

Intro - 
       A7               Asus4        
e|---0-0-0-0-0-----0------0-0-0-0-------------------------------------|
B|---2-2-2-2-2-----2h3----3-3-3-3-------------------------------------|
G|---0-0-0-0-0-----0------0-0-0-0-------------------------------------|
D|---2-2-2-2-2-----2------2-2-2-2-------------------------------------|
A|---0-0-0-0-0-----0------0-0-0-0-------------------------------------|
E|---X-X-X-X-X-----X------X-X-X-X-------------------------------------|


Verse
          D                      Bm                     D     
e|---2--2--3—-2--2----]-----2--2--2--2--2----]------------------------|
B|---3--3--3--3--3----]-----3--3--0--3--3----]------------------------|
G|---2--2--2--2--2----]-----4--4--4--4--4----]-----Play D Again-------|
D|---0--0--0--0--0----]-----4--4--4--4--4----]------------------------|
A|---x--x--x--x--x----]-----2--2--2--2--2----]------------------------|
E|---x--x--x--x--x----]-----2--2--2--2--2----]------------------------|


       A       A7             (DO THIS SLIDE THRICE!)         D  
e|---0-0-0---0-0-0---]---0---0-0-0-0------0-------0-----------2-------|
B|---2-2-2---2-2-2---]---2H3-3-3-3-3-----3/5-----5/8----------3-------|
G|---2-2-2---0-0-0---]---0---0-0-0-0------0-------0-----------2-------|
D|---2-2-2---2-2-2---]---2---2-2-2-2-----2/4-----4/7----------0-------|
A|---0-0-0---0-0-0---]---0---0-0-0-0------0-------0-----------X-------|
E|---X-X-X---X-X-X---]---X---X-X-X-X------X-------X-----------X-------|

 
| /  slide up
| \  slide down
| h  hammer-on
            
Hard to play? Try these video lessons and learn fast. | Correct




comments powered by Disqus
↑ Back to top | Tablatures and chords are parodies/interpretations of the original songs. You may use it for private study, scholarship, research or language learning purposes only