>
 >
Punta Umbria

Punta Umbria Guitar Tabs

Paco De Lucia - Punta Umbria chords, tabs, tablatures, lyrics

Guitar lessons | Add/correct | Request | Top 50 tabs Artists:  A B C D E F G H I J K L M N O P Q R S T U V W X Y Z 0-9

Punta Umbria Guitar Tabs – Paco De Lucia

CD, Sheet music, Poster

Do you like Punta Umbria? Share with your friends now
Tabs
This is a really cool flamenco song by the master Paco De Lucia and the song uses a Capo at the 2nd fret.


E||----------------------|-----------------|----------------------|
B||----------------------|--0--------------|----------------------|
G||------4-5-4-2-4-5-4-2-|--0----2----1----|------2-4-2-0-2-4-2-0-|
D||----------------------|--3----3----0----|------3---------------|
A||----------------------|--2----3----2----|------3---------------|
E||------0---------------|--3----1----0----|------1---------------|


                                                              
--------------------|----------------------|-----------------|
--------------------|----------------------|--0--------------|
--2-----------------|------4-5-4-2-4-5-4-2-|--0----2----1----|
--3----2-3-6-3-2----|----------------------|--3----3----0----|
--3------------2----|----------------------|--2----3----2----|
--1------------0----|------0---------------|--3----1----0----|


                                                                     
----------------------|--------------------|------5--7--5--3--5--3--|
----------------------|--------------------|------------------------|
------2-4-2-0-2-4-2-0-|--2-----------------|------------------------|
------3---------------|--3----2-3-6-3-2----|------3--------2--------|
------3---------------|--3------------2----|------------------------|
------1---------------|--1------------0----|------------------------|


                                                                            
--1--3--1--0------------|------------0--1--0--3--|--1--0-------------------|
-----------0----3--1----|------1--3--------------|--------3--1--3--1--0----|
-----------1-------0----|------2-----------------|-----------2--------0----|
--0--------0-------2----|------2-----------------|-----------0--------0----|
------------------------|------0-----------------|-----------0--------2----|
-----------3-------3----|------------------------|--------------------3----|


                                                                            
------0--1--0--------0--|-----0------------------|-------------------------|
---------------1--3-----|--3-----3--1----0-------|----------------0--1--3--|
------------------------|-------------------2----|-------2--0--2-----------|
------------------------|------------------------|--3----------------------|
------3-----------------|------------------------|--3----------------------|
------------------------|-----------1------------|--1----1--------3--------|


                                                                            
--0--1--3--5--3--1--0----|------5--7--5--3--5--3--|--1--3--1--0------------|
--------------------0----|------------------------|-----------0----3--1----|
--------------------1----|------------------------|-----------1-------0----|
-----------3--------2----|------3--------2--------|--0--------0-------2----|
--3----------------------|------------------------|------------------------|
-------------------------|------------------------|-----------3-------3----|


                                                                  
-------------------|-----0-------------------|-------------------|
------1----0----1--|--3-----3--1--0--1--0----|------1------------|
------2------------|--------------------0----|------3----2----3--|
------0------------|--------------------0----|------2------------|
------0------------|--------------------2----|------3------------|
-------------------|--------------------3----|-------------------|


                                                                          
-------------------------|--------------------------|--------------------|
--1--3--1----------------|--0----1--0-------1----0--|--------------------|
-----------3--2--3--2----|----------0----0----------|--2----0------------|
--------------------3----|----------0---------------|--3---------3--2----|
--------------------3----|----------2---------------|--3-----------------|
--------------------1----|----------3---------------|--1------------0----|


-----------------------------|-----------------------------|
-----------3--0--------------|-----------------------------|
--------1--------1-----------|-----------------------------|
--2--3--------------3--0-----|--------------------2--0--2--|
--------------------------2--|--------2-----0--3-----------|
-----------------------------|--0--4-----0-----------------|


                                                        
-----------------------------|-------------------------|
-----------------------------|-------------------------|
-----------------------------|-------------------------|
-----------------3--0--------|--------1----------------|
--3--2--0-----2--------2-----|-----0-----3--0----------|
-----------3--------------3--|--1--------------1--0----|


                                                                   
------------------------|----------------------|------------------|
-------------------1----|----1-1-1-1-------3-1-|--0--1--3---------|
----1-1-1-1--1-1-1-2----|----2-2-2-2----2------|-------------0----|
----2-2-2-2--2-2-2-2----|----2-2-2-2-----------|-------------0----|
----2-2-2-2--2-2-2-0----|----0-0-0-0-----------|-------------2----|
------------------------|----------------------|-------------1----|


                                                                    
-----------------|--------0-------0-----|----0-------0-------0-----|
-----------------|----------0-------0---|------0-------0-------0---|
--2--------------|------------4-------4-|--------4-------4-------4-|
-------3----2----|------7-------6-------|----------7-------6-------|
-------3----2----|----------------------|--------------------------|
-------1----0----|----------------------|--0-----------------------|


                                                      
----0-------0-------0-----|----0-------0-------0-----|
------0-------0-------0---|------0-------0-------0---|
--------4-------4-------4-|--------4-------4-------4-|
----------7-------9-------|----------9-------9-------|
--------------------------|--------------------------|
--0-----------------------|--0-----------------------|


                                                      
----0-------0-------0-----|----0-------0-------0-----|
------0---0---0-------0---|------0-------0-------0---|
--------4-------4-------4-|--------4-------4-------4-|
------------------7-------|----------9-------9-------|
--------------------------|--------------------------|
--0-----------------------|--0-----------------------|


                                                      
----0-------0-------0-----|----0-------0-------0-----|
------0-------0-------0---|------0-------0-0-----0---|
--------4-------4-------4-|--------4---------------4-|
----------7-------6-------|----------7-------6-------|
--------------------------|--------------------------|
--0-----------------------|--0-----------------------|


                                                      
----0-------0-------0-----|----0-------0-------0-----|
------0-------0-------0---|------0-0-----0-------0---|
--------4-------4-------4-|----------------4-------4-|
--------------------------|----------5-------7-------|
----------7-------8-------|--------------------------|
--0-----------------------|--3-----------------------|


                                                      
----0-------0-------0-----|----0-------0-------0-----|
------0-------0-------0---|------0-------0-------0---|
--------4-------4-------4-|--------4-------4-------4-|
--7-------5-------3-------|----------5-------5-------|
--------------------------|--------------------------|
--------------------------|--1-----------------------|


                                                      
----0-------0-------0-----|----0-------0-------0-----|
------0-------0-------0---|------0-------0-------0---|
--------4-------4-------4-|--------4-------4-------4-|
--5-------3---------------|--2-------3-------2-------|
--------------------------|--------------------------|
------------------0-------|--------------------------|


                                                                               
------------0-------0-----|----0-------0-------0-----|----0-------------0---
--------------0-------0---|------0-0-----0-0-----0-0-|------0-------------0-
----------------4-------4-|--------------------------|--------4------------4
--3---2-0---------0-------|------------------2-------|--0-------------------
----------4---------------|--2-------3---------------|----------3--2--0-----
--------------------------|--------------------------|----------------------


                                                                    
----------0-------0-----|-----------------|------------------0--5--|
------------0-------0---|-----------------|---------------1--------|
--------------4-------4-|-----------------|------------2-----------|
--------0---------------|-------3----2----|---------2--------------|
--2--3------------------|--0----0----2----|------0-----------------|
----------------3-------|-------1----0----|------------------------|


                                                                 
--7----5-7-5--3----|---------------------3--|--5----3-5-3--1----|
--7-----------3----|---------------0--3-----|--5-----------1----|
--5-----------4----|------------------------|--3-----------2----|
--------------5----|---------0--3-----------|--------------3----|
-------------------|------------------------|-------------------|
-------------------|------3-----------------|-------------------|


                                                                           
------------------------|--3----1-3-1--0------|-----------0---0-1-3-5-3-1-|
---------------------1--|--1----1------0--0---|--------0----3-------------|
------------------2-----|--2----2------1----1-|-----1---------------------|
---------------3--------|--3----3------2------|--2------------------------|
---------0--3-----------|---------------------|---------------------------|
------1-----------------|---------------------|---------------------------|


                                                                              
--0-1-0-------------------|--0-1-3-5-3-1-0-----------|----------------------
--------3-1-0-------0-1-3-|----------------3-1-0-----|----------------------
--------------2-1-2-------|----------------------2-0-|----------------------
--------------------------|--------------------------|--3-2-0---------------
--------------------------|--------------------------|--------3-2-0---------
--------------------------|--------------------------|--------------3-1-0---


                                                               
-------------------|--------------------|---------------------|
----0-0-0-0--------|----0-0-0--0-0-1----|----1-1-1--1-1-1--1--|
----1-1-1-1--------|----1-1-1--1-1-2----|----2-2-2--2-2-2--2--|
----2-2-2-2--------|----2-2-2--2-2-2----|----2-2-2--2-2-2--2--|
----2-2-2-2--------|----2-2-2--2-2-0----|---------------------|
-------------------|--------------------|---------------------|


                                                            
-----------------|---------------------|-------------------|
-----------------|---------------------|-------------------|
--0--------------|---------------------|-------------------|
--3----3----2----|--------2--3-2-0-----|--0----------------|
--2----0----2----|--2--3--2---------4--|--2--3--2--1--0----|
--3----1----0----|--------4------------|-------------------|


                                                                     
-----------------------|------------------------|-------------------|
-----------------------|------------------------|-------------------|
-----------------------|------------------------|-------------------|
-----------------------|------------------------|----0-0---0-0-0----|
--2----3----2--0-------|--0---------------------|----2-2---2-2-2----|
--------------------3--|-------3--1--3--1--0----|----0-0---0-0-0----|


                                                                
--------------------|-----------------|------------------------|
----0-0-0--0-0-1----|-----------------|------------------------|
----1-1-1--1-1-2----|--0--------------|------0-----------------|
----2-2-2--2-2-2----|--3----3----2----|---------2-----3--0-----|
----2-2-2--2-2-0----|--2----0----2----|------------3--------2--|
--------------------|--3----1----0----|------------------------|


                                                                             
-------------------------|------------------------|-------------------------
-------------------------|------------------------|-------------------------
-------------------------|------------------------|-------------------------
--2--------0-------------|------------------------|--3--2--0----------------
-----3--0-----2-----0----|---------0--3-----0--3--|-----------3--2--0-------
-----------------4-------|------0--------0--------|--------------------3----


                                                                            
------------------------|-------------------------|------------------------|
------------------------|-------------------------|---------------1--0-----|
------------------------|-----------------0--2----|---------------------2--|
------0-----------------|--------0--2--3-----3----|------------1-----------|
---------2-----3--0-----|--2--3--------------0----|------0--3--------------|
------------3--------1--|--------------------1----|------------------------|


                                                                     
-----------------|------------------------|-------------------------|
-----------------|------------------------|-------------------------|
--0--------------|------0-----------------|-------------------------|
-------3----2----|---------2-----3--0-----|--2--------0-------------|
-------2----2----|------------3--------2--|-----3--0-----2-----0----|
-------3----4----|------------------------|-----------------4-------|


                                                                            
------------------------|-------------------------|------------------------|
------------------------|-------------------------|------------------------|
------2--------0--------|-------------------------|------------------------|
---------3--0-----2-----|--3--2--0----------------|------------0--2--0--3--|
---------------------3--|-----------3--2--0-------|---------0--------------|
------------------------|--------------------3----|------3-----------------|


                                                            
-----------------------------|-----------------------------|
-----------------------------|-----------------------------|
-----------------------------|-----------------------------|
--2--0--------------------1--|-----------------3--0--------|
--------3--1--0--------0-----|--3--0--------2--------2-----|
-----------------3--1--------|--------1--3--------------3--|


                                                                             
-------------------------|-------------------------|------------------------
-------------------------|-------------------------|------------------------
-------------------------|----------------------1--|--2----0----------------
--------1----------------|--------0--2----2--3-----|--3-------3--2--0-------
-----0-----3--0----------|--2--3-----2-------------|--0----------------3----
--1--------------1--0----|-----------4-------------|--1---------------------


                                                               
-----------------|------------------------|-------------------|
-----------------|------------------------|-------------------|
-----------------|------------------------|-------------------|
-------0----2----|--3----1----------------|----0-0-0-0--------|
--3----2----1----|--0-------3--0----------|----2-2-2-2--------|
-----------------|----------------1--0----|----0-0-0-0--------|


                                                                  
---------------------|----------------------|--------------------|
----0-0-0--0-0----1--|-----1-1-1--1-1-1--1--|-----1-----1-----0--|
----1-1-1--1-1----2--|-----2-2-2--2-2-2--2--|-----2-----2-----1--|
----2-2-2--2-2----2--|-----2-2-2--2-2-2--2--|-----2-----1-----2--|
----2-2-2--2-2-0-----|--0-------------------|--------------------|
---------------------|----------------------|--3-----1-----0-----|


                                                            
------------------|--1----0-------------|------------------|
-----0-0-0--------|--0-------3--1--0----|------1--------0--|
-----1-1-1--------|--0-------------0----|------------------|
-----2-2-2--------|--0-------------0----|------0-----------|
------------------|--2-------------2----|------2-----------|
--0---------------|--3-------------3----|------3-----------|


                                                                    
---------------------|-------------------|--0--1--3--1--0--1--0----|
---------------------|----1-1-1-1--------|--1-----------------1----|
--2----2--0----------|----0-0-0-0--------|--0-----------------0----|
-------------3--2----|----2-2-2-2--------|--------------------2----|
---------------------|----3-3-3-3--------|--3-----------------3----|
---------------------|-------------------|-------------------------|


                                                               
------1--------0--|-----------------------|-------------------|
------1-----------|--3----3--1----0-------|-------------------|
------0-----------|------------------2----|-------------------|
------2-----------|-----------------------|----3-3-3-3--------|
------3-----------|-----------------------|----3-3-3-3--------|
------------------|-----------------------|----1-1-1-1--------|


                                                               
--1----0-------------|------------------|---------------------|
--0-------3--1--0----|------1--------0--|---------------------|
---------------------|------------------|--2----2--0----------|
--3-------------0----|------0-----------|-------------3--2----|
--2-------------2----|------2-----------|---------------------|
--3-------------3----|------3-----------|---------------------|


                                                                  
-------------------|--0--1--3--5--3--1--0----|--0----5--7--7--5--|
----1-1-1-1--------|--1-----------------1----|-------------------|
----0-0-0-0--------|--0-----------------0----|-------------------|
----2-2-2-2--------|-------------------------|-------------------|
----3-3-3-3--------|--3-----------------3----|-------------------|
-------------------|-------------------------|-------------------|


                                                                    
--5--3--1--0-------------|-------------------|--0------------------|
--------------3--1--0----|-------------------|--0----3--1--0-------|
-------------------------|-------------------|--0-------------2----|
-------------------------|----3-3-3-3--------|--3-------------0----|
-------------------------|----5-5-5-5--------|--2-------------2----|
-------------------------|----3-3-3-3--------|--3-------------3----|


                                                             
------------------|---------------------|-------------------|
------1--------0--|---------------------|----1-1-1-1--------|
------------------|--2----2--0----------|----0-0-0-0--------|
------3-----------|-------------3--2----|----2-2-2-2--------|
------2-----------|---------------------|----3-3-3-3--------|
------3-----------|---------------------|-------------------|


                                                               
--0--1--3--1--0--1--0----|------1------0--|-------------------|
--1-----------------1----|------1---------|--3--3--1--0-------|
--0-----------------0----|------0---------|--------------2----|
--2-----------------2----|------2---------|-------------------|
--3-----------------3----|------3---------|-------------------|
-------------------------|----------------|-------------------|


                                                               
-------------------|--------------------|---------------------|
----1-1-1-1--------|--------------------|---------------------|
----2-2-2-2--------|--------------------|---------------------|
----3-3-3-3--------|--------------------|--------2--3-2-0-----|
----3-3-3-3--------|--------------------|--2--3--2---------4--|
----5-5-5-5--------|----4--3----1--0----|--------0------------|


                                                                 
--------------------|--------------------|----------------------|
--------------------|--------------------|----------------------|
--------------------|--------------------|----------------------|
--0-----------------|--------------------|----------------------|
--2--3--2--1--0-----|--0--2--0--2--0-----|--0-------------------|
--3-----------1--4--|--------1--------4--|--1--4--1--4--1--0----|


                                                                
-------------------|---------------------|---------------------|
-------------------|----0-0-0--0-0----1--|-----1-1-1--1--1--1--|
-------------------|----1-1-1--1-1----2--|-----2-2-2--2--2--2--|
----0-0-0-0--------|----2-2-2--2-2----2--|-----2-2-2--2--2--2--|
----2-2-2-2--------|---------------0-----|--0------------------|
----0-0-0-0--------|---------------------|---------------------|


                                                                       
-------------------|------------------------|-------------------------|
-----1-----1--0----|------------------------|-------------------------|
-----2-----2--1----|------------------------|-------------------------|
-----2-----1--2----|------------------------|--3--2--0----------------|
--------------2----|---------0--3-----0--3--|-----------3--2--0-------|
--3-----1-----0----|------0--------0--------|--------------------3----|


                                                                            
------------------------|-------------------------|------------------------|
------------------------|-------------------------|---------------------1--|
---------------------0--|--2--0-------------------|------------3--2--3-----|
------------3--0--3-----|--------3--3--2--0-------|---------2--------------|
---------2--------------|--------------------3----|------3-----------------|
------3-----------------|-------------------------|------------------------|


                                                                                
-------------------------|-------------------------|-----------------------|
--3----1-----------------|----------------------1--|--1----0---------------|
----------3--2--0--------|-----0-----------2-------|----------2--0---------|
-------------------3-----|--3-----------3----------|----------------3-----2|
----------------------3--|-----------3-------------|-----------------------|
-------------------------|--------1----------------|-------------------0---|


                                                                          
-----------------------------|-------------------------|-----------------|
-----------1--0--3--1--0-----|-------------------------|--1---------1----|
-----0--2-----------------2--|--0--2--0----------------|--0---------2----|
--3--------------------------|-----------3--2--0-------|--2---------3----|
-----------------------------|--------------------3----|-------0---------|
-----------------------------|-------------------------|-----------------|


                                                           
------------------|--------0--------|---------------------|
------------------|--------3--------|----0-0-0--0-0----1--|
-------2----------|-----1-----------|----1-1-1--1-1----2--|
-------3----------|--3-----3--------|----2-2-2--2-2----2--|
-------3-------2--|--------5--------|---------------------|
--1---------0-----|--------0--------|---------------4-----|


                                                          
---------------------|-------------------|------0--------|
-----1-1-1--1--1--1--|-----1-----1--0----|------0--------|
-----2-2-2--2--2--2--|-----2-----2--1----|------1--------|
-----2-2-2--2--2--2--|-----2-----1--2----|------2--------|
--0------------------|-------------------|------2--------|
---------------------|--3-----1-----0----|------0--------|


                                                                      
--8--7--5--7--5--4--5----|----5-5-5--------|-----1--3--5--7--5--3----|
--5----------------------|----5-5-5--------|--5----------------------|
--5----------------------|----5-5-5--------|-------------------------|
--5----------------------|-----------------|-------------------------|
-------------------------|-----------------|-------------------------|
-------------------------|-----------------|-------------------------|


                                                                      
--5----3--------|--5--3--1--3--1--0--1--------|---------1------------|
--4----3--------|-----------------------1-----|-------1-----------0--|
--5----3--------|--------------------------2--|-----2----------2-----|
--4----5--------|-----------------------------|--1-------------------|
----------------|-----------------------------|----------------------|
----------------|-----------------------------|----------------------|


                                                                      
--------0--1--3--1--0----|----0-0-0--------|--8--7--5--7--5--4--5----|
--1--3-------------------|----0-0-0--------|--5----------------------|
-------------------------|----1-1-1--------|--5----------------------|
-------------------------|-----------------|--5----------------------|
-------------------------|-----------------|-------------------------|
-------------------------|-----------------|-------------------------|


                                                                 
----5-5-5--------|-------------------------|--5----3------------|
----5-5-5--------|-----1--3--1--0-----0----|--4----3------------|
----5-5-5--------|--4--------------2-------|--5----3------------|
-----------------|-------------------------|--4----5------0--3--|
-----------------|-------------------------|--------------------|
-----------------|-------------------------|--------------------|


                                                                 
-------------------------|------------1----|--------------------|
-------------------------|--1---------4----|--------------------|
--2--2--0----------------|--3---------2----|--0--------0--------|
-----------3--2--0-------|--2----3---------|---------3---3-2----|
--------------------3----|--3--------------|---------------2----|
-------------------------|-----------------|---------------0----|


                                                                
---------------------|--------------------|--------------------|
---------------------|--------------------|--------------------|
---------------------|--------------------|--------------------|
--------2--3-2-0-----|--0-----------------|--------------------|
--2--3--2---------4--|--2--3--2--1--0-----|--0--2--0--2--0-----|
--------0------------|--------------1--4--|--------1--------4--|


                                                             
----------------------|---------------|---------------------|
----------------------|---------------|----0-0-0--0-0----1--|
----------------------|------1--------|----1-1-1--1-1----2--|
----------------------|------0--------|----2-2-2--2-2----2--|
--0-------------------|------2--------|---------------0-----|
--1--4--1--4--1--0----|------0--------|---------------------|


                                                                  
---------------------|--------------------|----------------------|
-----1-1-1--1--1--1--|-----1-----1-----0--|-----3-3-3--3-3-3--3--|
-----2-2-2--2--2--2--|-----2-----2-----1--|-----4-4-4--4-4-4--4--|
-----2-2-2--2--2--2--|-----2-----1-----2--|-----3-3-3--3-3-3--3--|
--0------------------|--------------------|----------------------|
---------------------|--3-----1-----0-----|--3-------------------|


                                                                 
---------------------|----------------------|-------------------|
-----3-3-3--3-3------|-----1-1-1--1-1-1--1--|-----1-----1--0----|
-----4-4-4--4-4------|-----2-2-2--2-2-2--2--|-----2-----2--1----|
-----3-3-3--3-3------|-----2-2-2--2-2-2--2--|-----2-----1--1----|
----------------0----|--0-------------------|-------------------|
--3------------------|----------------------|--3-----1----------|


                                                            
----------------|--0-1-0----------------|------------------|
------0----0----|--------3-1-3-1-0------|---------0--1--3--|
------1----1----|------------------2----|------2-----------|
------2----2----|------------------2----|------------------|
------2----2----|------------------0----|------------------|
------0----0----|-----------------------|------------------|


                                                                       
--0--1--5--3-1-0----|----------------------|--0-1-0-------------------|
---------------0----|------------0-1-0-1-3-|--------3-1-3-1-0---0-1-3-|
---------------1----|------2-1-2-----------|------------------2-------|
---------------2----|----------------------|--------------------------|
--------------------|----------------------|--------------------------|
--------------------|----------------------|--------------------------|


                                                                          
--0-1-3-5-3-1-0-----------|-----------------------|------8-8-8-8-8-8-8-8-|
----------------3-1-0-----|-----------------------|------5-5-5-5-5-5-5-5-|
----------------------2-0-|-----------------------|------5-5-5-5-5-5-5-5-|
--------------------------|--3-2-0----------------|------5-5-5-5-5-5-5-5-|
--------------------------|--------3-2-0----------|----------------------|
--------------------------|--------------3-1-0----|----------------------|


                                                                   
--8--8--8--8--7--7--|--7--7--6-6-6-6-6-6-6-6-|--6--6--6--6--5--5--|
--5--5--5--5--6--6--|--6--6--5-5-5-5-5-5-5-5-|--5--5--5--5--4--4--|
--5--5--5--5--7--7--|--7--7--5-5-5-5-5-5-5-5-|--5--5--5--5--5--5--|
--5--5--5--5--5--5--|--5--5--5-5-5-5-5-5-5-5-|--5--5--5--5--3--3--|
--------------------|------------------------|--------------------|
--------------------|------------------------|--------------------|


                                                                    
--5--5-5-7--7--7--7--|--7--7--5--5--4--4--|--4--4------------------|
--4--4-4-6--6--6--6--|--6--6--4--4--3--3--|--3--3------------------|
--5--5-5-7--7--7--7--|--7--7--5--5--4--4--|--4--4--0-0-0-0-0-0-0-0-|
--3--3-3-5--5--5--5--|--5--5--3--3--2--2--|--2--2--3-3-3-3-3-3-3-3-|
---------------------|--------------------|--------2-2-2-2-2-2-2-2-|
---------------------|--------------------|--------3-3-3-3-3-3-3-3-|


                                                                           
-------------------|----------------|----------------|----0-0-0-0--------||
-------------------|----------------|----------------|----0-0-0-0--------||
--0--0--0--0-------|----------------|----------------|----1-1-1-1--------||
--3--3--3--3-------|----------------|------3----2----|----2-2-2-2--------||
--2--2--2--2----0--|----------------|------3----2----|----2-2-2-2--------||
--3--3--3--3-------|----4--3--------|------1----0----|----0-0-0-0--------||





Comments


Popular Paco De Lucia tabs & chords
Almoraima Tabs
Entre Dos Aguas Tabs
Entre Dos Aguas 1 Tabs
Entre Dos Aguas Part 3 Tabs
La Barrosa Tabs
Mariachi Tabs
Mediterranean Sundance Rio Ancho Tabs
Panaderos Flamencos Tabs
Rio Anchp Tabs
Tico Tico Tabs


Song lyrics



↑ Back to top | Tablatures and chords are parodies/interpretations of the original songs. You may use it for private study, scholarship, research or language learning purposes only
© 2014 AZChords.com Contact us | Privacy policy | DMCA | Add/correct tabs | Request tabs | Top 50 tabs