>
 >
Entre Dos Aguas Part 3

Entre Dos Aguas Part 3 Guitar Tabs

Paco De Lucia - Entre Dos Aguas Part 3 chords, tabs, tablatures, lyrics

Guitar lessons | Add/correct | Request | Top 50 tabs Artists:  A B C D E F G H I J K L M N O P Q R S T U V W X Y Z 0-9

Entre Dos Aguas Part 3 Guitar Tabs – Paco De Lucia

CD, Sheet music, Poster

Do you like Entre Dos Aguas Part 3? Share with your friends now
Tabs
-------------------------------------------------------------------------------
                             Paco De La Lucia (3e part)
-------------------------------------------------------------------------------

I translate this part alone so it s not exactly correct. Just enjoy !!!

Tuning:

e|0-----------0--2--3--5--10--8--7--5---------------------5--7--10--8--7h6--7|
B|0--0--1--3---------------------------8--7--5---5--7--8---------------------|
G|0--------------------------------------------------------------------------|
D|2--------------------------------------------------------------------------|
A|---------------------------------------------------------------------------|
E|---------------------------------------------------------------------------|

e|-7---7----0--7----0--7----0--7----7--5-----7--5-----7--5-----7--5-----7----|
B|-------8-------8-------8-------8--------8--------8--------8--------8-------|
G|---------------------------------------------------------------------------|
D|---------------------------------------------------------------------------|
A|---------------------------------------------------------------------------|
E|---------------------------------------------------------------------------|

e|-0--2--3--5--7--12-12-12-12--10--8-8--7-7--5-5-----------------------------|
B|------------------------------------------------8-8--7--5------------------|
G|------------------------------------------------------------7--5--4--------|
D|---------------------------------------------------------------------------|
A|---------------------------------------------------------------------------|
E|---------------------------------------------------------------------------|

e|-5--7--7--5--3--5h3--2--0-----3--2--0-----2h0-----0---7--5--3--5h3--2--0---|
B|---------------------------3-----------3-------0--------------------------3|
G|---------------------------------------------------------------------------|
D|---------------------------------------------------------------------------|
A|---------------------------------------------------------------------------|
E|---------------------------------------------------------------------------|

e|-5h3--2--0-----3--2--0-----2h0-----0--2--3--10---7--5--3--5h3--2--0--------|
B|------------3-----------3-------0------------------------------------3--3--|
G|---------------------------------------------------------------------------|
D|---------------------------------------------------------------------------|
A|---------------------------------------------------------------------------|
E|---------------------------------------------------------------------------|

e|0--2--3--5--7--5--3-5-3-5-3--2--0---7--12--10--8--7--5--3--5--3--2--0-0--3-|
B|---------------------------------------------------------------------------|
G|---------------------------------------------------------------------------|
D|---------------------------------------------------------------------------|
A|---------------------------------------------------------------------------|
E|---------------------------------------------------------------------------|

e|-5--3--2--0---7-8-7-6-7--7-8-7-6-7--7--12--10--8--7---5--------------------|
B|---------------------------------------------------------8--7--5-----------|
G|------------------------------------------------------------------7--5--4--|
D|---------------------------------------------------------------------------|
A|---------------------------------------------------------------------------|
E|---------------------------------------------------------------------------|

e|-0-0-0-0-0-----0------0-----0------2-1-0-2-1-0-2-1-0-2-1-0--0-----0------0-|
B|---------0-4-3-0-4-3--0-4-3-0-4-3--3-----3-----3-----3------0-4-3-0-4-3--0-|
G|---------0-----0------0-----0------2-----2-----2-----2------0-----0------0-|
D|---------------------------------------------------------------------------|
A|---------------------------------------------------------------------------|
E|---------------------------------------------------------------------------|

e|-----0-----------0-2-3-5-3-2-0---0--------0-2-3-2-0---2-0-2--------0-2-3-5-|
B|4-3--0--0--0-1-3---------------3-1--0-1-3-----------0-----3--0-1-3---------|
G|-----0--4------------------------0------------------------2----------------|
D|--------4------------------------------------------------------------------|
A|--------6------------------------------------------------------------------|
E|---------------------------------------------------------------------------|

e|3-2-0---0--------0-2-3-2-0---0-2-3-5-7-7s10---7s10---7--5-5-5-5----------5-|
B|------3-1--0-1-3-----------0-------------------------------------8-7-5-----|
G|--------0--------------------------------------------------------------7---|
D|---------------------------------------------------------------------------|
A|---------------------------------------------------------------------------|
E|---------------------------------------------------------------------------|

e|--------5----------5---------7--5-------7-5-------7--5-------7-5-------8--7|
B|8-7-5------8-7-5-----8-7-5--------8-7-5-----8-7-5------8-7-5-----8-7-5-----|
G|------7----------7---------7-----------------------------------------------|
D|---------------------------------------------------------------------------|
A|---------------------------------------------------------------------------|
E|---------------------------------------------------------------------------|

e|-5-----8-7-5-----8--7-5-----8-7-5-----10--8-7-5-3--0-2-3-5-7-8-10-12--14--12--|
B|---8-7-------8-7--------8-7-------8-7-----------------------------------------|
G|------------------------------------------------------------------------------|
D|------------------------------------------------------------------------------|
A|------------------------------------------------------------------------------|
E|------------------------------------------------------------------------------|

e|-10-14-12-10-14-12-10-14-12-10--15--14-12-15--14-12-15--14-12-15--14-12--14|
B|---------------------------------------------------------------------------|
G|---------------------------------------------------------------------------|
D|---------------------------------------------------------------------------|
A|---------------------------------------------------------------------------|
E|---------------------------------------------------------------------------|

e|--12-10-14-12-10-14-12-10-14-12-10--15--14-12-15--14-12-15--14-12-15-14-12-|
B|---------------------------------------------------------------------------|
G|---------------------------------------------------------------------------|
D|---------------------------------------------------------------------------|
A|---------------------------------------------------------------------------|
E|---------------------------------------------------------------------------|

e|-17--15-14-17-15-14-17-15-14-17-15-14--1919191919-19-19-1919-19-19--17-17-17--|
B|------------------------------------------------------------------------------|
G|------------------------------------------------------------------------------|
D|------------------------------------------------------------------------------|
A|------------------------------------------------------------------------------|
E|------------------------------------------------------------------------------|

e|-1717-17-17-18-1919191919-19-19-1919---------------------------------------|
B|---------------------------------------------------------------------------|
G|---------------------------------------------------------------------------|
D|---------------------------------------------------------------------------|
A|---------------------------------------------------------------------------|
E|---------------------------------------------------------------------------|

************************************

| /   slide up
| \   slide down
| h   hammer-on
| p   pull-off
| ~   vibrato
| +   harmonic
| x   Mute note
| b   Bend
| pb  Pre-bend
| br  Bend release
| pbr Pre-bend release
| brb Bend release bend

************************************





Comments


Popular Paco De Lucia tabs & chords
Almoraima Tabs
Cueva Del Gato Tabs
El Tempul Tabs
Entre Dos Aguas Tabs
Entre Dos Aguas 1 Tabs
La Barrosa Tabs
Mariachi Tabs
Mediterranean Sundance Rio Ancho Tabs
Punta Umbria Tabs
Rio Anchp Tabs


Song lyrics



↑ Back to top | Tablatures and chords are parodies/interpretations of the original songs. You may use it for private study, scholarship, research or language learning purposes only
© 2014 AZChords.com Contact us | Privacy policy | DMCA | Add/correct tabs | Request tabs | Top 50 tabs