>
 >
El Inclusero

El Inclusero Guitar Tabs

Paco De Lucia - El Inclusero chords, tabs, tablatures, lyrics

Guitar lessons | Add/correct | Request | Top 50 tabs Artists:  A B C D E F G H I J K L M N O P Q R S T U V W X Y Z 0-9

El Inclusero Guitar Tabs – Paco De Lucia

CD, Sheet music, Poster

Do you like El Inclusero? Share with your friends now
Tabs
E||--2-----------|--2--7-7-7-7--5-7-5-|--3--0-----0--|--3--3-5-3-2--0--|
B||-----1-----1--|--------------------|--------0-----|-----------------|
G||--------2-----|--------------------|--------------|-----------------|
D||--------------|--------------------|--------------|-----------------|
A||--2-----------|--------------------|--------------|-----------------|
E||--------------|--------------------|--0-----------|-----------------|


                                                                    
--5----------5-----|--5--2-3-2-0-----|--0-----------|--------------|
-----------4---4---|--------------4--|--------------|-----------0--|
---------2-------2-|-----------------|--------------|--0--1--2-----|
-------4-----------|-----------------|-----1--2--4--|--------------|
-------------------|-----------------|--------------|--------------|
--7----------------|-----------------|--------------|--------------|


                                                                         
------------------|----------0-2---|--3-2-0---0-2-3-5-|--7----5-3-0-----|
--1-0---0-1-0-0-1-|--0-0-1-3-------|--------4---------|-----8--------0--|
------2-------2---|----2-----------|------------------|-----------------|
------------------|----------------|------------------|-----------------|
------------------|----------------|------------------|-----------------|
------------------|----------------|------------------|-----------------|


                                                                  
-----5--2-----|--3-5-3-2--0-----|--0------0-------|--------------|
-----------4--|--------------4--|-------0---------|-----0-----0--|
--------------|-----------------|-----0-----------|-----0-----0--|
--------------|-----------------|-----------2-----|-----2-----2--|
--2-----------|-----------------|--------------3--|--2-----------|
--------------|-----------------|-----------------|--------3-----|


                                                                   
--0-------7--7\-|--5----4---5-|--5-3-2-2--2-2-2-|--2-2-2-2--2-2-2-|
--0----0--------|-------------|--------4--4-4-4-|--4-4-4-4--4-4-4-|
--0-------------|-------------|--------2--2-2-2-|--2-2-2-2--2-2-2-|
--2-------------|-------------|--------4--4-4-4-|--4-4-4-4--4-4-4-|
--2-------------|-------------|-----------2-2-2-|--2-2-2-2--2-2-2-|
--0-------------|-------------|-----------------|-----------------|


                                                                      
---2-5-3-2-0-0---|----------0-0-0-|---5-5-7-8-7-7-5-|--3--3-3--3-3-3-|
---------------0-|--1--0-0--0-0-0-|-----------------|-----5-5--5-5-5-|
-----------------|-------0--0-0-0-|-----------------|-----4-4--4-4-4-|
-----------------|-------2--2-2-2-|-----------------|-----2-2--2-2-2-|
-----------------|-------2--2-2-2-|-----------------|-----2-2--2-2-2-|
-----------------|----------0-0-0-|-----------------|----------------|


                                                                               
--3-3-3-3-------|-------------|---------------|-------------|---------7-7-5-4-|
--5-5-5-5--0--0-|--1--0----1--|--0--0-0--0--0-|--1--0----1--|--0-0--0---------|
--4-4-4-4-------|----------0--|--2--2-2-------|----------0--|--2--------------|
--2-2-2-2-------|----------2--|--1--1-1-------|----------2--|--1--------------|
--2-2-2-2-------|----------3--|--2--2-2-------|----------3--|--2--------------|
----------------|-------------|---------------|-------------|-----------------|


                                                                      
--5--5-5--5-5-5-|-----------7-8-10-|--9--7-7--7-7-7-|---5--4-5-4-5-7-|
-----5----5-5-5-|---7--8-10--------|-------8--------|----------------|
-----5----5-5-5-|------------------|-------9--9-9-9-|----------------|
-----7----7-7-7-|------------------|-------9--9-9-9-|----------------|
-----7----7-7-7-|------------------|-------7--7-7-7-|----------------|
-----5----5-5-5-|------------------|-------7--7-7-7-|----------------|


                                                                     
--8---7-5-4------|--------0-2-3--3-2-|--0--0-0--0-0-0-|---5---5---5-|
------------7----|--0---4------------|-----0-0--0-0-0-|---5---5---5-|
-----------------|--2----------------|-----0-0--0-0-0-|---5---5---5-|
-----------------|--1----------------|-----2-2--2-2-2-|---7---7---7-|
-----------------|--2----------------|-----2-2--2-2-2-|-------7---7-|
-----------------|--2----------------|--0-------------|-------------|


                                                             
---7-7-7-7-7-7---7-|--------0---------|---0-0-0-0-0-0-0--0--|
---8-8-8-8-8-8---8-|------------------|---0-0-0-0-0-0-0--0--|
---9-9-9-9-9-9---9-|------3---------8-|---9-9-9-9-9-9-9--9--|
---9-9-9-9-9-9---9-|----5---------7---|---9-9-9-9-9-9-9--9--|
---7-7-7-7-7-7---7-|------------9-----|---7-7-7-7-7-7-7--7--|
---7-7-7-7-7-------|--8-------7-------|---0-0-0-0-0-0-0--0--|


                                                                          
|---7-7-7-7--7-7-7-|--7-7-7-7--7-7-7--||----------------|----------0-0-0-|
|---7-7-7-7--7-7-7-|--8-8-8-8--8-8-8--||--8--7-5------0-|-----0-0--0-0-0-|
|*--8-8-8-8--8-8-8-|--9-9-9-9--9-9-9-*||----------7-5---|--5----0--0-0-0-|
|*--7-7-7-7--7-7-7-|--9-9-9-9--9-9-9-*||----------------|-------2--2-2-2-|
|---9-9-9-9--9-9-9-|--7-7-7-7--7-7-7--||----------------|-------2--2-2-2-|
|---7-7-7-7--7-7-7-|--0-0-0-0--0-0-0--||----------------|----------0-0-0-|


                                                                      
-----3-2-0-----0-|--5--5-5--5-5-5-|----------7--7-8-|--7-------------|
---0-------4-4---|-----4-4--4-4-4-|---7-7-10--------|-----8----------|
-----------------|-----2-2--2-2-2-|-----------------|-------9--9-9-9-|
-----------------|-----4-4--4-4-4-|-----------------|----------9-9-9-|
-----------------|-----2-2--2-2-2-|-----------------|----------7-7-7-|
-----------------|----------------|-----------------|----------0-0-0-|


                                                                              
---5--3-2-0---0-|--2-----------2-7-|--7--0---7-8--8-7-|------0--0---0--0--0--|
------------4---|------------4-----|--7----9----------|--10--10-10--10-10-10-|
----------------|----------2-------|--8---------------|------9--9---9--9--9--|
----------------|------1-4---------|--7---------------|------10-10--10-10-10-|
----------------|----2-------------|--9---------------|----------------------|
----------------|------------------|------------------|----------------------|


                                                                 
-----------------|--3-2-0-7-7-7-7-7-7-7-7-7-7-7-|--7----0---3-5-|
---10--7-------7-|--------8-8-8-8-8-8-8-8-8-8-8-|--8----0-7-----|
---------8---8---|--------9-9-9-9-9-9-9-9-9-9-9-|--9----0-------|
-----------9-----|--------9-9-9-9-9-9-9-9-9-9-9-|--9------------|
-----------------|--------7-9-9-9-9-9-9-9-9-9-9-|--7----7-------|
-----------------|--------0---------------------|--0------------|


                                                                      
--10-10-8---------------|------4-5-3-2-|------2-3-2-0-|--0-----0--2--|
----------10-8-7-5------|--------------|--------------|--0--0--------|
-------------------7----|--------------|--------------|--0-----------|
------------------------|--------------|--------------|--2-----------|
------------------------|--------------|--------------|--2-----------|
------------------------|--------------|--------------|--0-----------|


                                                                          
--3----2----|--0-0-0-0-0-0-0--0--||---0-0-0-0--0-0-0-|--0-0-0-0--0-0-0--||
--5----4----|--0-0-0-0-0-0-0--0--||---0-0-0-0--0-0-0-|--0-0-0-0--0-0-0--||
--3----2----|--0-0-0-0-0-0-0--0--||*--2-2-2-2--2-2-2-|--0-0-0-0--0-0-0-*||
--5----4----|--2-2-2-2-2-2-2--2--||*--1-1-1-1--1-1-1-|--2-2-2-2--2-2-2-*||
--3----1----|--2-2-2-2-2-2-2--2--||---2-2-2-2--2-2-2-|--2-2-2-2--2-2-2--||
------------|--0-0-0-0-0-0-0--0--||---2-2-2-2--2-2-2-|--0-0-0-0--0-0-0--||


                                                                             
--2-------2-7-7-5-|--3-0---0-3-3-2-0-|--5--------5-2-0---|--0---------------|
----1---1---------|------0-----------|---------4-------4-|----------------0-|
------2-----------|------------------|-------2-----------|------------0-2---|
--1---------------|------------------|-----4-------------|----1-2-3-4-------|
------------------|------------------|-------------------|------------------|
------------------|--0---------------|--7----------------|------------------|


                                                                                
--5-3-2-3-5-3-2-3-5-3-2-3-5-------|--0-----------0-2-3-0-----|---5-2---3-2-0---|
----------------------------0-1-4-|----4---0---4---------0---|-------4-------4-|
----------------------------------|------5---5-------------0-|-----------------|
----------------------------------|--------------------------|-----------------|
----------------------------------|--------------------------|-----------------|
----------------------------------|--------------------------|-----------------|


                                                                           
--0--0-0-0-0-0--0-0-|--0-0-0-0--0-0-0-|--0-0-0-0--0-0-0-|--0-0-0-0--0-0-0-|
-----0-0-0-0-0--0-0-|--0-0-0-0--0-0-0-|--0-0-0-0--0-0-0-|--0-0-0-0--0-0-0-|
-----0-0-0-0-0--0-0-|--2-2-2-2--2-2-2-|--0-0-0-0--0-0-0-|--2-2-2-2--2-2-2-|
-----2-2-2-2-2--2-2-|--1-1-1-1--1-1-1-|--2-2-2-2--2-2-2-|--1-1-1-1--1-1-1-|
-----2-2-2-2-2--2-2-|--2-2-2-2--2-2-2-|--2-2-2-2--2-2-2-|--2-2-2-2--2-2-2-|
-----0-0-0-0-0--0-0-|--2-2-2-2--2-2-2-|--0-0-0-0--0-0-0-|--2-2-2-2--2-2-2-|


                                                                          
------7-7-5--4-5-|--5-3-2-2-2--2-2-2-|---2-5-3--0----|-------------0-0-0-|
----0------------|--------4-4--4-4-4-|-------------0-|--1-3-1-0-0--0-0-0-|
-----------------|--------2-2--2-2-2-|---------------|----------0--0-0-2-|
-----------------|--------4-4--4-4-4-|---------------|----------2--2-2-2-|
-----------------|-------------------|---------------|----------2--2-2---|
--0--------------|-------------------|---------------|-------------------|


                                                                    
---5-5-7-8-7--5-|-----7-7--7-7-7-|--7-7-7-7-------|----------------|
----------------|--5--8-8--8-8-8-|--8-8-8-8--0--0-|--1-3-1-0----1--|
----------------|-----9-9--9-9-9-|--9-9-9-9-------|-------------0--|
----------------|-----9-9--9-9-9-|--9-9-9-9-------|-------------2--|
----------------|-----7-7--7-7-7-|--7-7-7-7-------|-------------3--|
----------------|-----0-0--0-0-0-|--0-0-0-0-------|----------------|


                                                                    
---------------|----------------|---------7-7-5-4-|--5--5-5--5-5-5-|
--0--0-0--0--0-|--1-3-1-0----1--|--0-0--0---------|-----5-5--5-5-5-|
--2--2-2-------|-------------0--|--2--------------|-----5-5--5-5-5-|
--1--1-1-------|-------------2--|--1--------------|-----7-7--7-7-7-|
--2--2-2-------|-------------3--|--2--------------|-----7-7--7-7-7-|
---------------|----------------|-----------------|-----5-5--5-5-5-|


                                                                         
--------5-7-8-10-|--8-10-8-7---7-7-7-|---5--4-5-4-5-7-|--8---7-5-3------|
---7--8----------|-------------8-8-8-|----------------|------------7----|
-----------------|-------------9-9-9-|----------------|-----------------|
-----------------|-------------9-9-9-|----------------|-----------------|
-----------------|-------------7-7-7-|----------------|-----------------|
-----------------|-------------0-0-0-|----------------|-----------------|


                                                           
--------0-2-3--3-2-|--0--0-0--0-0-0-|--5-5-5-5-5-5-5--5-5-|
--0---4------------|-----0-0--0-0-0-|--5-5-5-5-5-5-5--5-5-|
--2----------------|-----0-0--0-0-0-|--5-5-5-5-5-5-5--5-5-|
--1----------------|-----2-2--2-2-2-|--7-7-7-7-7-7-7--7-7-|
--2----------------|-----2-2--2-2-2-|--7-7-7-7-7-7-7--7-7-|
--2----------------|-----0-0--------|---------------------|


                                                               
--7-7-7-7-7-7-7--7-7-|--------0---------|---0-0-0-0-0-0-0--0--|
--8-8-8-8-8-8-8--8-8-|------0---------3-|---0-0-0-0-0-0-0--9--|
--9-9-9-9-9-9-9--9-9-|--------------2---|---9-9-9-9-9-9-9--9--|
--9-9-9-9-9-9-9--9-9-|----2-------4-----|---9-9-9-9-9-9-9--9--|
--7-7-7-7-7-7-7--7-7-|--3-------2-------|---7-7-7-7-7-7-7--7--|
--0-0-0-0-0-0-0--0-0-|------------------|---0-0---------------|


                                                                            
--2-------2-7-7-5-|--3-0---0-3-3-2-0-|--5--------5-2-----|--0--------------|
----0---0---------|------0-----------|---------4-----5-4-|---------------0-|
------2-----------|------------------|-------2-----------|---------0-1-2---|
--1---------------|------------------|-----4-------------|-----2-4---------|
------------------|------------------|--2----------------|-----------------|
------------------|--0---------------|-------------------|-----------------|


                                                              
--5-3-2-3-5-3-2-3-5-3-2-3-5-------|--0-----------0-2-3-0---0-|
----------------------------0---4-|----4---0---4---------0---|
------------------------------5---|------5---5---------------|
----------------------------------|--------------------------|
----------------------------------|--------------------------|
----------------------------------|--------------------------|


                                                                            
---3-2-0-----------------------|------0-0-0-0-0-0-0-|--4-4-4-4-4-4-4-4-4-4-|
---------3-1-0-----------------|------0-0-0-0-0-0-0-|--5-5-5-5-5-5-5-5-5-5-|
---------------2-0-------------|------0-0-0-0-0-0-0-|--4-4-4-4-4-4-4-4-4-4-|
-------------------4-2-0-------|------2-2-2-2-2-2-2-|--6-6-6-6-6-6-6-6-6-6-|
-------------------------3-2-0-|------2-2-2-2-2-2-2-|--7-7-7-7-7-7-7-7-7-7-|
-------------------------------|--3---0-0-0-0-0-0-0-|----------------------|


                                                                   
--5-5-5-5-5-5-5-5-5-|------------------2-0-----|----7-----2-7--7--|
--5-5-5-5-5-5-5-5-5-|------------0---3-----3-1-|--------4---7--7--|
--5-5-5-5-5-5-5-5-5-|--------0-----5-----------|------2-----8--8--|
--7-7-7-7-7-7-7-7-7-|------7---7---------------|------------7--7--|
--7-7-7-7-7-7-7-7-7-|----9---------------------|--2---------9--9--|
--------------------|--8-----------------------|------------------|


                                                                            
---5---5---5-|---7---7--7--|--8--8--8--8---7-7-7-7--|--0-0-0-0-0-0-0-0----||
---5---5---5-|---8---8--8--|--8--8--8--8---7-7-7-7--|--0-0-0-0-0-0-0-0----||
---5---5---5-|---9---9--9--|--9--9--9--9---8-8-8-8--|--9-9-9-9-9-9-9-9----||
---7---7---7-|---9---9--9--|--8--8--8--8---7-7-7-7--|--9-9-9-9-9-9-9-9----||
-------------|-------------|--10-10-10-10--9-9-9-9--|--7-7-7-7-7-7-7-7----||
-------------|-------------|--8--8--8--8---7-7-7-7--|--0-0-0-0-0-0-0-0----||
 
 
 
 
 
 
 
 
 





Comments


Popular Paco De Lucia tabs & chords
Almoraima Tabs
Cueva Del Gato Tabs
Entre Dos Aguas Part 3 Tabs
Guajiras De Lucia Tabs
Guarjiras De Lucia Intro Tabs
La Barrosa Tabs
Mediterranean Sundance Rio Ancho Tabs
Mi Inspiration Tabs
Punta Umbria Tabs
Tico Tico Tabs


Song lyrics



↑ Back to top | Tablatures and chords are parodies/interpretations of the original songs. You may use it for private study, scholarship, research or language learning purposes only
© 2014 AZChords.com Contact us | Privacy policy | DMCA | Add/correct tabs | Request tabs | Top 50 tabs