» » »

Stranger Tabs (ver.1)

Artists:  A B C D E F G H I J K L M N O P Q R S T U V W X Y Z # 

Stranger Tabs (ver.1)

Pacifier
Rating:
0/5 (0 votes)

Hard to play? Try these video lessons and learn fast.
                Pacifier - Stranger
Tuning - CGCfad

intro/chorus
|----------------------------------------|
|----------------------------------------|
|---7-7-7-----7---------12-12-12----9-7--|
|-0-7-7-7---3-3---8-8-8-8--8--8---5-5-5--|
|-0-5-5-5---3-3---8-8-8-8--8--8---5-5-5--|
|-0-0-0-0---3-3---8-8-8-8--8--8---5-5-5--|

end on
|-------------|
|-------------|
|-7-----------|
|-7-let ring--|
|-5-----------|
|-0-----------|


verse
guitar 1
|--------|
|---3----|
|-----2--|
|-0------|
|--------|
|--------|

guitar 2 (also play this in the outro over the chorus riff)
|----------16-------14-------12-------12--|
|-------15-------15-------15-------15-----|
|----14-------14-------14-------14--------|
|-12--------------------------------------|
|-----------------------------------------|
|-----------------------------------------|


pre-chorus
|---------------------------------------------|
|---------------------------------------------|
|---------------------------------------------|
|-8--8--8-8-8--8--10/--3-5--3-3-3-5--5-5-5-5--|
|-8--8--8-8-8--8--10/--3-5--3-3-3-5--5-5-5-5--|
|-8--8--8-8-8--8--10/--3-5--3-3-3-5--5-5-5-5--|


interlude
|-----------------------------------|
|-----------------------------------|
|-----------------------------------|
|-8-8-8-8-8-8-8-8--7-7-7-7-7-7-7-7--| 
|-8-8-8-8-8-8-8-8--7-7-7-7-7-7-7-7--|
|-8-8-8-8-8-8-8-8--7-7-7-7-7-7-7-7--|
 pm............    pm...........

|-------------------------------------------|
|-------------------------------------------|
|-------------------------------------------|
|-8-8-8-8-8-8-8-8--10-10-10-10-10-10-10-10--|
|-8-8-8-8-8-8-8-8--10-10-10-10-10-10-10-10--|
|-8-8-8-8-8-8-8-8--10-10-10-10-10-10-10-10--|
 pm............    pm..................

guitar2
|---------------------------------|
|---3----3---3------1----1---1----|
|-2----2---2---2--0----0---0---0--|
|---------------------------------|
|---------------------------------|
|---------------------------------|

i cant figure out the solo.
            
Hard to play? Try these video lessons and learn fast. | Correct




comments powered by Disqus
↑ Back to top | Tablatures and chords are parodies/interpretations of the original songs. You may use it for private study, scholarship, research or language learning purposes only