» » »

Pacifier, Nothing Tabs (ver.1)

Artists:  A B C D E F G H I J K L M N O P Q R S T U V W X Y Z # 

Nothing Tabs (ver.1)

Pacifier Tabs
 Rating:
4/5 (4 votes)
Nothing lessons Tabs too difficult? Try these video lessons and learn fast
                Pacifier - Nothing
Tuning - DGCfad

intro/verse
guitar 1
|----------|
|----------|
|-10-8-9\--|
|-10-8-9\--|
|-8--6-7\--|
|----------|

guitar 2
|----|
|----| repeat this note.
|-9--| it is palm muted
|----| through most parts
|----| of the song. just
|----| listen for it.


chorus
|--------------------------------------------------------|
|--------------------------------------------------------|
|-------------------7-7-7-7-7-7--------------------------|
|-2-3-4-5-5-5-5-5-5-7-7-7-7-7-7-8-8-8-8-8-8-8-8-8-8-8-8--|
|-2-3-4-5-5-5-5-5-5-5-5-5-5-5-5-8-8-8-8-8-8-8-8-8-8-8-8--|
|-0-1-2-3-3-3-3-3-3-------------6-6-6-6-6-6-6-6-6-6-6-6--|


interlude
guitar 1
|-7--------|
|---5------|
|-----7----|
|-------7--| x5
|----------|
|----------|

then
|--------------------|
|-5-5-5-5-5-5-5-5-5--|
|-7-7-7-7-7-7-7-7-7--|
|--------------------| x4
|--------------------|
|--------------------|

guitar 2
|-7--------|
|---5------|
|-----7----|
|-------7--| x3
|----------|
|----------|

then
|--------------------------|
|--------------------------|
|--------------------------|
|--------------------------| x2
|-/7-x-7-x-7-x-7-x-4---5\--|
|--------------------------|

then
|-7--------|
|---5------|
|-----7----|
|-------7--| x3
|----------|
|----------|


outro
guitar 1 plays the chorus

guitar 2
|--16--|
|------| repeated lots
|------|
|------|
|------|
|------|

then
|----------|--------------------|
|----------|--------------------|
|-13-13-13-|-14-15-15-15-15-15--|
|----------|--------------------| x4
|----------|--------------------|
|----------|--------------------|

then
|--16--|
|------| repeated lots
|------|
|------|
|------|
|------|
            
Submit corrections

comments powered by Disqus
↑ Back to top | Pacifier Tabs for Nothing. Lyrics for acoustic guitar and electric guitar. Tablatures and chords are parodies/interpretations of the original songs. You may use it for private study, scholarship, research or language learning purposes only