» » »

Just A Shadow Tabs (ver.1)

Artists:  A B C D E F G H I J K L M N O P Q R S T U V W X Y Z # 

Just A Shadow Tabs (ver.1)

Pacifier
Rating:
0/5 (0 votes)

Hard to play? Try these video lessons and learn fast.
                Pacifier
Just a Shadow

Intro/Verse
e|----------------------------------------------------------------|
B|----------------------------------------------------------------|
G|---------------4----7----9--------------------------------------|
D|--2---5---7----4----7----9--------------------------------------|
A|--2---5---7----2----5----7--------------------------------------|
E|--0---3---5-----------------------------------------------------|
Strum these chords for the intro.
Palm mute with a slightly different rhythm for the verse.

Chorus
e|----------------------------------------------------------------|
B|----------------------------------------------------------------|
G|----5------7---------------5-------7---8------------------------|
D|----5--5---7---7----x3-----5---5---7---8------------------------|
A|----3--5---5---7-----------3---5---5---6------------------------|
E|-------3-------5---------------3--------------------------------|


Solo
e|----------------------------7-----7-----7---------------------------|
B|------8--10^12^10--8-----10---10----10------------8--10^12^10--8----|
G|---9------------------9--------------------9--9-------------------9-|
D|--------------------------------------------------------------------|
A|--------------------------------------------------------------------|
E|--------------------------------------------------------------------|

e|------------------------------7--7---10^12----------------------|
B|------8--10^12^10--8------10------------------------------------|
G|---9------------------9-----------------------------------------|
D|----------------------------------------------------------------|
A|----------------------------------------------------------------|
E|----------------------------------------------------------------|
Play over chorus chords. Bend the last note kinda gradually.


Living it up inside a cloud of isolation
with all the people tryin' to be somebody else
(cut apart) an extra generation
(cut apart) forget yourself

stand up stand up stand up (f**k yeah)
when they line up line up, (f**k yeah)
standin in line left alone in your mind
you're too cool to touch

there's something inside you where nobody goes and
there's something about you that i used to know
and if the sun is still shinin, you'd never tell
you're just a shadow

tied up in knots left hanging from the ceiling
with all the people wishin i was somewhere else
looking good, dont know wat i'm feeling
looking good inside yourself

when they get up get up (f**k yeah)
when they line up line up (f**k yeah)
spending their time just to get to a life
i cant seem to touch

there's something inside you where nobody goes and
there's something about you that i used to know
and if the sun is still shining you'd never tell
you're just a shadow, of somebody else
you're just a shadow

let goooooo (get up get up get up)
let goooooo (stand up stand up stand up)

there's something inside you where nobody goes and
there's something about u that i used to know
and if the sun is still shinin you'd never tell
you're just a shadow, of somebody else
you're just a shadow
you're just a shadow of somebody else
you're just a shadow

Thats it. Listen to the song and there shouldn't be any worries.
            
Hard to play? Try these video lessons and learn fast. | Correct




comments powered by Disqus
↑ Back to top | Tablatures and chords are parodies/interpretations of the original songs. You may use it for private study, scholarship, research or language learning purposes only