>
 >
Home

Home Guitar Tabs

Pacifier - Home chords, tabs, tablatures, lyrics

Guitar lessons | Add/correct | Request | Top 50 tabs Artists:  A B C D E F G H I J K L M N O P Q R S T U V W X Y Z 0-9

Home Guitar Tabs – Pacifier

CD, Sheet music, Poster

Do you like Home? Share with your friends now
Tabs
Pacifier - Home
Tuning - guitar 1 - EADgbe
         guitar 2 - DGCfad
         guitar 3 - EADgbe

it took me ages to figue out this song and i found that only by having three
guitar parts i could get it so that it sounded right. i'm not sure how accurate
it is but it sounds ok.

GUITAR 1

intro/chorus/outro
|-3--3--3--3-3--2--2--2--2--3--3--3--3-3---2--2--2--3--|
|-3--3--3--3-3--3--3--3--3--3--3--3--3-3---3--3--3--3--|
|-0--0--0--0-0--2--2--2--2--0--0--0--0-0---2--2--2--2--|
|-2--2--2--2-2--0--0--0--0--0--0--0--0-0---0--0--0--0--|
|-2--2--2--2-2--------------2--2--2--2-2---------------|
|-0--0--0--0-0--------------3--3--3--3-3---------------|

verse
|------------3--3--3-3--1--1-1-1--3-3-3-3--|
|-0--0--0-0--3--3--3-3--1--1-1-1--3-3-3-3--|
|-2--2--2-2--0--0--0-0--2--2-2-2--2-2-2-2--|
|-2--2--2-2--0--0--0-0--3--3-3-3--0-0-0-0--| x3
|-0--0--0-0--2--2--2-2--3--3-3-3-----------|
|------------3--3--3-3--1--1-1-1-----------|

then
|-1--1-1-1--2-2-2-2--1--1-1-1--3-3-3-3--|
|-1--1-1-1--3-3-3-3--1--1-1-1--3-3-3-3--|
|-2--2-2-2--2-2-2-2--2--2-2-2--0-0-0-0--|
|-3--3-3-3--0-0-0-0--3--3-3-3--0-0-0-0--|
|-3--3-3-3-----------3--3-3-3--2-2-2-2--|
|-1--1-1-1-----------1--1-1-1--3-3-3-3--|

the very last note of the song is the first note of the intro

GUITAR 2

intro/chorus
|-------------------------------------|
|-------------------------------------|
|----------9-9-9-9--------------------|
|-4-4-4-4--9-9-9-9--7-7-7-7--2-2-2-2--|
|-4-4-4-4--7-7-7-7--7-7-7-7--2-2-2-2--|
|-2-2-2-2-----------5-5-5-5--0-0-0-0--|

verse
|-----------------------3-3-3-------------|
|-----------------------3-3-3-------------|
|-4-4-4-4--4-4-4-4------4-4-4-------------|
|-4-4-4-4--4-4-4-4--5-5-5-5-5--2-2-2-2-2--| x3
|-2-2-2-2--0-0-0-0--5-5-5-5-5--2-2-2-2-2--|
|-------------------3-3-3-3-3--0-0-0-0-0--|

then
|-----3-3-3---------------3-3-3-----------|
|-----3-3-3---------------3-3-3-----------|
|-----4-4-4---------------4-4-4--2-2-2-2--|
|-5-5-5-5-5--2-2-2-2--5-5-5-5-5--2-2-2-2--|
|-5-5-5-5-5--2-2-2-2--5-5-5-5-5--0-0-0-0--|
|-3-3-3-3-3--0-0-0-0--3-3-3-3-3-----------|

interlude/outro
|------12---------------|
|-/12--------12-\-10--9-|
|-----------------------|
|-----------------------|
|-----------------------|
|-----------------------|

the very last note of the song is the slide up to 12

GUITAR 3

intro/chorus
|-2h3-3-3--3-3-2-2-2-2--|
|-3---3-3--3-3-3-3-3-3--|
|-----------------------|
|-----------------------|
|-----------------------|
|-----------------------|

verse (only the second verse)
|---------------------------------------------------|
|---------1--------1----1----------3--------3----3--|
|-0h2-2-2----0h2-2----2----0h2-2-2----0h2-2----2----|
|---------------------------------------------------|
|---------------------------------------------------|
|---------------------------------------------------|

interlude/outro
|-------------------5----------|
|-----------------7---7-5-\-3--|
|-/7--4--2--0--/7--------------|
|------------------------------|
|------------------------------|
|------------------------------|

the very last note of the song is a couple of 7's on the g string





Comments


Popular Pacifier tabs & chords
Run Bass Tabs
Semi-normal Bass Tabs
Semi-normal 1 Bass Tabs
Bullitproof Tabs
Bullitproof (Intro) Tabs
Comfort Me Tabs
Comfort Me 2 Tabs
Home Again Tabs
Just A Shadow Tabs
Stranger Tabs


Song lyrics



↑ Back to top | Tablatures and chords are parodies/interpretations of the original songs. You may use it for private study, scholarship, research or language learning purposes only
© 2014 AZChords.com Contact us | Privacy policy | DMCA | Add/correct tabs | Request tabs | Top 50 tabs