» » »

Pacifier, Coming Down Tabs (ver.1)

Artists:  A B C D E F G H I J K L M N O P Q R S T U V W X Y Z # 

Coming Down Tabs (ver.1)

Pacifier Tabs
Rating:
0/5 (0 votes)
Coming Down lessons Tabs too difficult? Try these video lessons and learn fast
                Pacifier play in DGCFAD, but I prefer to play this song in Drop-D…


 Guitar 1: Main riff (play throughout)

E|------------------------------------------|
B|----6--6-6--6--6-6--6--6--6-6--6--6--6-6--|
G|----5--5-5--5--5-5--5--5--5-5--5--5--5-5--|
D|--0-0--0-0--0--3-3--3--5--5-5--5--5--5-5--|
A|------------------------------------------|
D|------------------------------------------|

Interlude:

E|-1-----0-----1-----3-----|
B|----1-----1-----1-----1--|
G|-------------------------|
D|-------------------------|
A|-------------------------|
D|-------------------------|



Guitar 2 doesn’t play in the verses or interlude, just the chorus: 

E|---------------------------------------------|
B|---------------------------------------------|
G|-----------------------5--5-5--5-------------|
D|-0--0--0-0--3-3--3--3--5--5-5--3-------------|
A|-0--0--0-0--3-3--3--3--3--3-3--3--5-5--5--5--|
D|-0--0--0-0--3-3--3--3-------------5-5--5--5--|

That’s it! It pretty simple, just listen to the song to get the rhythm right…
            
Submit corrections

comments powered by Disqus
↑ Back to top | Pacifier Tabs for Coming Down. Lyrics for acoustic guitar and electric guitar. Tablatures and chords are parodies/interpretations of the original songs. You may use it for private study, scholarship, research or language learning purposes only