>
 >
The Ultimate Sin

The Ultimate Sin Guitar Tabs

Ozzy Osbourne - The Ultimate Sin chords, tabs, tablatures, lyrics

Guitar lessons | Add/correct | Request | Top 50 tabs Artists:  A B C D E F G H I J K L M N O P Q R S T U V W X Y Z 0-9

The Ultimate Sin Guitar Tabs – Ozzy Osbourne

CD, Sheet music, Poster

Do you like The Ultimate Sin? Share with your friends now
Bass TabsTabs
			     Ultimate Sin- Ozzy Osbourne



Drums:     Fade in with feedback, (D) effects and pick slide
e|---------------------------------------------------------------------------|
B|---------------------------------------------------------------------------|
G|---------------------------------------------------------------------------|
D|---------------------------------------------------------------------------|
A|---------------------------------------------------------------------------|
E|---------------------------------------------------------------------------|


Intro/Chorus:
e|---------------------------------------------------------------------------|
B|-3--------6-5----------8-----------8-6---6--6-6\---33--------6-5----------8|
G|-2--------5-4----------7-7---------7-5---5--5-5\---22--------5-4----------7|
D|-0-0-0-00-3-2-0-0-0-00-5-7---------5-3---3--3-3\---00-0-0-00-3-2-0-0-0-00-5|
A|-0-----------------------5-5-5-5-55----55-55-------00----------------------|
E|---------------------------------------------------------------------------|

		   	Riff A			Riff B
e|-----------------1st--time------------2nd/3rd --time--------------------------|
B|------------8-6------------------------------------------------------------|
G|-7----------7-5-----5---------------7p6p5\2-0h2p0--------------------------|
D|-7----------5-3--5H7-7-2/7\2---------------------0-5b7---------------------|
A|-5-5-5-5-55-----7----------------------------------------------------------|
E|---------------------------------------------------------------------------|


Verse: 1, 2, and 3
1.	"Overkill…
2.	"Any way…
3.	"I warned…

	Guitar 1
e|-------3-------------3-------------------3---8---------3-------------------|
B|-3----6-6-5H6-5--3---3-------------3----6-6-5-6-5--3---3-------------------|
G|-2---5---5-----5-2---5-------------2---5---------5-2---5-------------------|
D|-0---------------0---5-------------0---------------0---5-------------------|
A|-0---------------0---3-------------0---------------0---3-------------------|
E|---------------------------------------------------------------------------|
	Guitar 2
e|---------------------------3--------------------------------3--------------|
B|---------------------------3-5------------------------------3--------------|
G|-7---10---10--9--7---5-5-5---5-5---7---10---10--9--7---5-5-5---5--5--------|
D|-7---10---10--9--7---5-5-5-----5---7---10---10--9--7---5--5----5--5--------|
A|-5----8----8--7--5---3---3-----3---5----8----8--7--5---3-------3--3--------|
E|---------------------------------------------------------------------------|


Pre chorus:
 	Guitar 1
e|---------------------------X2----------------------------------------------|
B|--------------------------- --------------------------6p5----8-6-5---------|
G|7----7----7----7----7------ -7----7----7-----55-77-55----7-5------5--------|
D|0----0----0----0----0-----5 -0----0----0---77------------------------------|
A|-5555-5555-5555-5555-5555-3 --5555-5555--55--------------------------------|
E|---------------------------------------------------------------------------|
  	Guitar 2: Harmonic played at the 7th in D with slight tremolo, 
		   using bar to bend whole step.
e|---------------------------------------------------------------------------|
B|---------------------------------------------------------------------------|
G|<7>------------------------------<7>b<9>r<7>-------------------------------|
D|---------------------------------------------------------------------------|
A|---------------------------------------------------------------------------|
E|---------------------------------------------------------------------------|


 
Interlude:
	o = open wah pedal (foot down) and + = close wah pedal (heel down)
  
e|o-+-o-+-o-+-o-+-o-+-o-------------o----------------------------------------|
B|----------------------------------8----------------------------------------|
G|7\-/7\-/7\-/7\-/7\-/7\-10-9------10---7\-/7\-/7\-/7\-/7\-/7\-10-9------1010|
D|7\-/7\-/7\-/7\-/7\-/7\-----10-7--10---7\-/7\-/7\-/7\-/7\-/7\-----10-7--1010|
A|-------------------------------8--8----------------------------------8-----|
E|---------------------------------------------------------------------------|


Solo:
	Guitar 1
e|----------------------------------4-4p2-0---------------7-------5----------|
B|---------------7p5---------4-5p4-4-------4-2-0----5-7p5--10p\5-7-----5-5p7-|
G|\6-8p6-9p6-8p6----8-6--/4-6-----6--------------6/8-8--------------6/8-8----|
D|---------------------------------------------------------------------------|
A|---------------------------------------------------------------------------|
E|---------------------------------------------------------------------------|
	Guitar 2
e|---------------------------------------------------------------------------|
B|---------------------------------------------------------------------------|
G|2----------------------4-----------------------6------------------4--------|
D|2----------------------4-----------------------6------------------4--------|
A|0----------------------2-----------------------4------------------2--------|
E|---------------------------------------------------------------------------|
	Guitar 1
e|11-9p7----7-7-9-9p7-10p7-9p7-12p7-10p7-9p7-10p7-9-11-11p9-12p9-11p9-14p9-12|
B|------10-7-----------------------------------------------------------------|
G|---------------------------------------------------------------------------|
D|---------------------------------------------------------------------------|
A|---------------------------------------------------------------------------|
E|---------------------------------------------------------------------------|
	Guitar 2 - strum chords as 16th notes.
e|---------------------------------------------------------------------------|
B|---------8--------------------------------------10-------------------------|
G|---------7---------------------------------------9-------------------------|
D|---------5---------------------------------------7-------------------------|
A|---------------------------------------------------------------------------|
E|---------------------------------------------------------------------------|
	Guitar 1
e|p9-11p9-12p9-10-12-12p10-13p10-12p10-15p10-13p10-12p10-13p10-12-14-14p12-15|
B|---------------------------------------------------------------------------|
G|---------------------------------------------------------------------------|
D|---------------------------------------------------------------------------|
A|---------------------------------------------------------------------------|
E|---------------------------------------------------------------------------|
	Guitar 2
e|---------------------------------------------------------------------------|
B|-------------11----------------------------------------------13------------|
G|-------------10----------------------------------------------12------------|
D|--------------8----------------------------------------------10------------|
A|---------------------------------------------------------------------------|
E|---------------------------------------------------------------------------|

	Guitar 1
e|p12-14p12-1212-1412-1512-1712-20b22----------------------------------------|
B|---------------------------------------------------------------------------|
G|---------------------------------------------------------------------------|
D|---------------------------------------------------------------------------|
A|---------------------------------------------------------------------------|
E|---------------------------------------------------------------------------|
	Guitar 2				Go to Intro chorus with riff B
e|---------------------------------------------------------------------------|
B|-----------------------------------3---------------------------------------|
G|-----------------------------------2---------------------------------------|
D|-----------------------------------0---------------------------------------|
A|-----------------------------------0---------------------------------------|
E|---------------------------------------------------------------------------|
				 	
	End of 4Th chorus				 Ending:
					 Guitar 1
    Riff played at end of 4th chorus
e|---------------------------------------------------------------------------|
B|3p1p0-----5p3p2-----6p5p3------------3--------6------5--------8------3-----|
G|-----2p1p0-----5p4p2-----7p5p4-------2--------5------4--------7------2-----|
D|------------------------------7p5p3--0-000000-3-0000-2-000000-5-0000-0-0000|
A|---------------------------------------------------------------------------|
E|---------------------------------------------------------------------------|
	Guitar 1
e|---------------------------555---8\----------------------------------------|
B|---8------6---------777-666---666----3--------6------5--------8------3-----|
G|---7------5-555-777------------------2--------5------4--------7------2-----|
D|00-5-0000-3--------------------------0-000000-3-0000-2-000000-5-0000-0-0000|
A|---------------------------------------------------------------------------|
E|---------------------------------------------------------------------------|
	Guitar 1
e|---------------------------------------------------------------------------|
B|---8------6--6--6----6--6--6----6--6--6------------------------------------|
G|---7------5--5--5----5--5--5----5--5--5----7\------------------------------|
D|00-5-0000-3--3--3----3--3--3----3--3--3----7\------------------------------|
A|-------------------------------------------5\------------------------------|
E|---------------------------------------------------------------------------|
	Guitar 2 					let ring…
e|--------------1-0h1------1-0h1------1-0h1---------0-------0-------0----2---|
B|-------------3-3---3----3-3---3----3-3---3------------3-------3--------3---|
G|----------2----------2----------2----------2----2---2---2---2---2---2--2---|
D|----------------------------------------------0------------------------0---|
A|---------------------------------------------------------------------------|
E|---------------------------------------------------------------------------|





Comments


Popular Ozzy Osbourne tabs & chords
Breaking All The Rules Bass Tabs
Desire Bass Tabs
I Just Want You Chords
Crazy Train Live Tabs
Goodbye To Romance 5 Tabs
No Bone Movies 1 Tabs
Slow Down Tabs
Soul Sucker Tabs
Tatooed Dancer Tabs
You Know Part 1 Tabs


Song lyrics



↑ Back to top | Tablatures and chords are parodies/interpretations of the original songs. You may use it for private study, scholarship, research or language learning purposes only
© 2014 AZChords.com Contact us | Privacy policy | DMCA | Add/correct tabs | Request tabs | Top 50 tabs