>
 >
Suicide Solution Tribute

Suicide Solution Tribute Guitar Tabs

Ozzy Osbourne - Suicide Solution Tribute chords, tabs, tablatures, lyrics

Guitar lessons | Add/correct | Request | Top 50 tabs Artists:  A B C D E F G H I J K L M N O P Q R S T U V W X Y Z 0-9

Suicide Solution Tribute Guitar Tabs – Ozzy Osbourne

CD, Sheet music, Poster

Do you like Suicide Solution Tribute? Share with your friends now
Tabs
SUICIDE SOLUTION (Live)
As recorded by Ozzy Osbourne w/Randy Rhoads
(From the 1987 Album TRIBUTE)


(E A D G B E) - 'Randy Rhoads - Rhythm & Lead w/dist'
Intro
 4/4
|--------|------------------|------------------|
|--------|------------------|------------------|
|--------|-2-----5\--0-2----|-5\--0------------|
|--------|-2-----5\--0-2----|-5\--0------------|
|--------|-0-0-0----------0-|-------0-(0)------|
|-19\----|------------------|-------------3----|


                                      \1___/
|--------------------|------------------------------||
|--------------------|------------------------------||
|-2-0-0-5\--0-2------|-5\--0-2-(2)-5-(5)--(5)-(5)---||
|-2-----5\--0-2------|-5\--0-2-(2)------------------||
|-0-----------0--0-0-|-------0-(0)------------------||
|--------------------|------------------------------||


 Verse
                                   |-3-|
|----------------|-----------------------------|------------------|
|----------------|-----------------------------|------------------|
|-----5\--0-2----|-5\--0-2-(2)-0h2p0-----------|-----5\--0-2------|
|-2---5\--0-2----|-5\--0-2-(2)-------2p0-------|-2---5\--0-2--0h2-|
|-0-0----------0-|-------0-(0)-----------3b3.5-|-0-0--------------|
|----------------|-----------------------------|------------------|


|------------------|-----------------|--------------------|
|------------------|-----------------|--------------------|
|-5\---------------|-2--0-5\--0-2----|-5\--0-------[2]----|
|-5\-----0-1-0h1---|----0-5\--0-2----|-5\--0--------------|
|------0---------0-|---------------0-|-------0-(0)--------|
|------------------|-----------------|--------------------|


               PM|                              ~~
|------------------|----------------|-----------------|
|------------------|----------------|-----------------|
|-2-2-5\--0-2------|-------0-(0)----|-2---5---5-7-----|
|-2-2-5\--0-2------|-9-7-5-0-(0)----|-2---5---5-7-----|
|-0-0----------0-0-|-7-5-3----------|-0-----0---------|
|------------------|-------3-(3)----|---3-------------|


                  ~~~              ~~       PM|
|----------------------|----------------|-------------------||
|----------------------|----------------|-------------------||
|-0--------2-(2)-[2]---|-2---5---5-7----|-0-----2-(2)-------||
|-0--------2-(2)-------|-2---5---5-7----|-0-----2-(2)-------||
|----------0-(0)-------|-0-0---0--------|-------0-(0)-17\---||
|----3b3.5-------------|----------------|---0-3-------------||


 Verse
|--------------------|
|--------------------|
|-------5\--0-2------|
|-------5\--0-2------|
|-0-0-0----------0-0-|
|--------------------|


           PM------------------------|
                       |------6-------|
|----------------------------------------|------------------|
|----------------------------------------|------------------|
|-5\--0----------------------------------|-----5\--0-2------|
|-5\--0---------------14-16-17-16-17-19\-|-----5\--0-2------|
|-------0-------15-17--------------------|-0-0----------0-0-|
|---------15-17--------------------------|------------------|


                      PM          PM
                                              |-3-|
|---------8s7-8s7-|-5---------------|-------------------------|
|---------8s7-8s7-|-5---------------|---------0h1p0-----------|
|-5-0-0-2-5s4-5s4-|-2-2-5\--0-2-2---|-5\--0-2-------2-0-------|
|-5-0-0-2---------|-----5\--0-2-2---|-5\--0-2-----------2-0---|
|-----------------|---------------0-|-----------------------3-|
|-----------------|-----------------|-------------------------|



|-------------------|-------------------||
|-------------------|-------------------||
|-2-----5\--0-2-2-2-|-------0-(0)-------||
|-2-----5\--0-2-2-2-|-9-7-5-0-(0)-------||
|-0-0-0-------0-0-0-|-7-5-3-------------||
|-------------------|-------3-(3)--19\--||


 Chorus
  PM|   PM|   PM|      PM  ~~~~~~     PM|   PM|   PM|      PM  ~~~~~~
|-----------------|-----------------|-----------------|------------------|
|-----------------|-----------------|-----------------|------------------|
|-----4-----6-----|-7----7-6-(6)----|-----4-----6-----|-7----7-6-(6)--2--|
|-----4-----6-----|-7----7-6-(6)----|-----4-----6-----|-7----7-6-(6)--2--|
|-----------------|-----------------|-----------------|---------------0--|
|-5-7---5-7---7-9-|---10------------|-5-7---5-7---7-9-|---10-------------|
|-Rhy Fig 1

  PM|   PM|   PM|      PM  ~~~~~~
|-----------------|-----------------|
|-----------------|-----------------|
|-----4-----6-----|-7----7-6-(6)----|
|-----4-----6-----|-7----7-6-(6)----|
|-----------------|-----------------|
|-5-7---5-7---7-9-|---10------------|


                            \0.5___/
  PM|   PM|   PM|
|-----------------|---------------------------||
|-----------------|---------------------------||
|-----4-----6-----|-7-------------------------||
|-----4-----6-----|-7-------------------------||
|-----------------|---------------------------||
|-5-7---5-7---7-9-|---9-0--(0)----(0)-(0)-(0)-||
    end Rhy Fig 1-|

 Interlude
                                      \1/
            ~~
|----------------|-------------------------|
|----------------|-------------------------|
|-2---5---5-7----|-0--------2---<5>-(<5>)--|
|-2---5---5-7----|-0--------2--------------|
|-0-0---0--------|----------0--------------|
|----------------|----3b3.5----------------|


        PM  ~~
|----------------|------------------||
|----------------|------------------||
|-----5---5-7----|-0----------------||
|-----5---5-7----|-0----------------||
|-0-0---0--------|------0-(0)-17\---||
|----------------|----3-------------||


 Verse
    PM                     PM------------------------|
                           |--3--|              |--3--|
|----------------|------------------------------------------|
|----------------|--------------------------------------17\-|
|-----5\--0-2--0-|-5------------------------------------17\-|
|-----5\--0-2--0-|-5----------------------------------------|
|-0-0------------|------0----------15-17-15-17-19-17-19-----|
|----------------|----3---17-15-17--------------------------|


|-----------------|-----------------|---------------|
|-----------------|-----------------|---------------|
|-----5\--0-2-2---|-5\--0-----------|-2--5\--0-2----|
|-----5\--0-2-2---|-5\--0---0h1-0---|-2--5\--0-2----|
|-0-0-----------0-|-------0-------3-|-0-----------0-|
|-----------------|-----------------|---------------|


|------------------------------|----------------|----------------||
|------------------------------|----------------|----------------||
|-5\--0-2-(2)------------------|-2---5\--0-2----|-------0-(0)----||
|-5\--0-2-(2)------------------|-2---5\--0-2----|-9-7-5-0-(0)----||
|------------------------------|-0-0----------0-|-7-5-3----------||
|-------------3b5==(3)r--3b3.5-|----------------|-------3-(3)----||


 Chorus
 w/Rhy Fig 1

|----------------||
|----------------||
|-7--------------||
|-7--------------||
|----------------||
|---9-7-0-(0)----||


 Interlude
           \0.5/     \0.5/   \0.5/   \0.5/   \0.5/
|-----------------|---------------------------------|
|-----------------|---------------------------------|
|-2-------(2)-----|-(2)-----(2)-----(2)-----(2)-----|
|-2-------(2)-----|-(2)-----(2)-----(2)-----(2)-----|
|-0-------(0)-----|-(0)-----(0)-----(0)-----(0)-----|
|-----------------|---------------------------------|


   \0.5/   \0.5/   \0.5/   \0.5/     \0.5/   \0.5/   \0.5/
|---------------------------------|-----------------------------|
|---------------------------------|-----------------------------|
|-(2)-----(2)-----(2)-----(2)-----|-(2)-----(2)-----(2)---------|
|-(2)-----(2)-----(2)-----(2)-----|-(2)-----(2)-----(2)-----x\--|
|-(0)-----(0)-----(0)-----(0)-----|-(0)-----(0)-----(0)---------|
|---------------------------------|-----------------------------|


                                   \1______|
|----------|----------|----------|------------------|------|
|----------|----------|----------|------------------|------|
|-5--------|-4--------|-0--------|------------------|-5----|
|-5--------|-4--------|-0--------|------------------|-5----|
|----------|----------|----------|-0------(0)-------|------|
|----------|----------|----------|-------------15\--|------|


  ~
|-----------|----------|---------------|----------|-------------|
|-----------|----------|---------------|----------|-------------|
|-7----0----|-2--------|-(2)-----------|-5--------|-4-------x\--|
|-7----0----|-2--------|-(2)-----------|-5--------|-4-------x\--|
|-----------|-0--------|-(0)-----------|----------|-------------|
|-----------|----------|--------17\----|----------|-------------|


                                          ~
|----------|--------------|-------------|-----------|
|----------|--------------|----------8--|-7---------|
|-0--------|------------4-|-5----5------|-7----0----|
|-0--------|-2----(2)---4-|-5----5h7-7--|-7----0----|
|----------|-0----(0)-----|-------------|-----------|
|----------|--------------|-------------|-----------|


    PM|
|--------------------|-------------------|--------------------|
|--------------------|-------------------|--------------------|
|-2-----5\--0-2------|-5\--0-2-(2)-------|-------5\--0-2------|
|-2-----5\--0-2------|-5\--0-2-(2)-------|-------5\--0-2------|
|-0-0-0----------0-0-|-------------------|-0-0-0----------0-0-|
|--------------------|-------------18\---|--------------------|


                                  Verse
           \0.5___/
|---------12tr15-12tr15-12tr15--||------------------|
|-------------------------------||------------------|
|-5\--0-------------------------||-------5\--0-2----|
|-5\--0-0-----------------------||-------5\--0-2----|
|-------------------------------||-0-0-0----------0-|
|-------------------------------||------------------|


          PM----------------------|     PM|          PM|
        |3| |----6----| |----6----|
|-----------------------------------|--------------------|
|-----------------------------------|--------------------|
|-5\--0-----------------------------|-2-----5\--0-2------|
|-5\--0-----------------3-5-7-4-5-7-|-2-----5\--0-2------|
|-------0---------3-5-7-------------|-0-0-0----------0-0-|
|---------2-3-5-7-------------------|--------------------|


                               PM|         PM|
                                                             |-3-|
|--------------------------|-------------------|-----------------------------|
|---------[7]b8==([7])r----|-------------------|-----------------------------|
|-5\--0-2------------------|-------5\--0-2-----|-5\--0-2-(2)-0h2p0-----------|
|-5\--0-2------------------|-------5\--0-2-----|-5\--0-2-(2)-------2p0-------|
|--------------------------|-0-0-0---------0-0-|-----------------------3b3.5-|
|--------------------------|-------------------|-----------------------------|


                                     Interlude
    PM        PM|                       PM
|-----------------|----------------||--------------------------|
|-----------------|----------------||--------------------------|
|-2---5\--0-2-----|-------0-(0)----||-2---5\--0-2--------------|
|-2---5\--0-2-----|-9-7-5-0-(0)----||-2---5\--0-2--------------|
|-0-0---------0-0-|-7-5-3----------||-0-0-------------------0--|
|-----------------|-------3-(3)----||-------------3b4==(3)r----|


                ~
|------------------|--------------------|
|------------------|--------------------|
|-5\--0-2-(2)------|-2--5\--0-2---------|
|-5\--0-2-(2)------|-2--5\--0-2---------|
|-------0-(0)-0----|-0----------------0-|
|---------------3--|------------3b3.5---|


                    \1.5/
                               PM
|--------------------------|-----------------|
|--------------------------|-----------------|
|-5\--0-2-(2)--------------|-2---5\--0-2-x-2-|
|-5\--0-2-(2)-<5>-(<5>)----|-2---5\--0-2-x-2-|
|--------------------------|-0-0---------x-0-|
|--------------------------|-----------------|


|---------------------------|----------------|----------------|
|---------------------------|----------------|----------------|
|-5\--0-2-(2)---------------|-----5\--0-2----|-------0-(0)----|
|-5\--0-2-(2)-2-----------2-|-----5\--0-2----|-9-7-5-0-(0)----|
|-------------0-3b4==(3)r---|-0-0------------|-7-5-3----------|
|---------------------------|----------------|-------3-(3)----|


                              \1________|     \1___/
|----------|---------------|----------------|--------------------------||
|----------|---------------|----------------|--------------------------||
|-2--------|-(2)-----------|----------------|--------------------------||
|-2--------|-(2)-----------|----------------|--------------------14\---||
|-0--------|-(0)----(0)----|-(0)-------(0)--|-0---(0)-(0)---(0)--14\---||
|----------|---------------|----------------|--------------------------||





                         \1______/      \1___/
|----------------------|-------------------------|----------------|
|----------------------|-------------------------|----------------|
|--------7b8==(7)r=(7)p|=5------(5)-(5)----------|--------------5-|
|----------------------|-------------------------|--------------5-|
|-0--------------------|----------------0---(0)--|-(0)----(0)-----|
|----------------------|-------------------------|----------------|


                                    \1__________|
|------------|-------------------|---------------------|
|------------|-------------------|---------------------|
|-(5)--------|-(5)----(5)---0tr2-|-(0tr2)------(0tr2)--|
|-(5)--------|-(5)----(5)--------|---------------------|
|------------|-------------------|---------------------|
|------------|-------------------|---------------------|


  \1___/                                            \2.5/   \2.5/
|--------------------------|--------------------------------------|
|--------------------0-----|--------------------------------------|
|-0---(0)-(0)---(0)----<5>-|-(<5>)---(<5>)-(<5>)--(<5>)---(<5>)---|
|--------------------------|--------------------------------------|
|--------------------------|--------------------------------------|
|--------------------------|--------------------------------------|


          \2/   \1/   \1.5/         \2/
|------------------------------------------|
|------------------------------------------|
|-(<5>)-(<5>)-(<5>)-(<5>)---(<5>)-(<5>)----|
|------------------------------------------|
|------------------------------------------|
|------------------------------------------|


        \1.5/         \1.5/   \1.5/     \1.5/
|---------------------------------------------|
|---------------------------------------------|
|---------------------------------------------|
|-<7>-(<7>)---(<7>)-(<7>)---(<7>)-----(<7>)---|
|---------------------------------------------|
|---------------------------------------------|


          \1.5/   \1.5/         \1.5/
                                                   |--3--|
|-----------------------------------------------0-------17-|
|-------------------------------------------0-0---17-20----|
|----------------------------------------------------------|
|-(<7>)-(<7>)---(<7>)---(<7>)-(<7>)---(<7>)----------------|
|----------------------------------------------------------|
|----------------------------------------------------------|


           ~~~~~
                         |--3--|  |------6------|  |------6-------|
|-----------------------17-20p17----17h20------17-------------------|
|-20b22==(20)r--(20)-20----------20-------0-20----20-17-------17----|
|-------------------------------------------------------19-20----20-|
|-------------------------------------------------------------------|
|-------------------------------------------------------------------|
|-------------------------------------------------------------------|


   |------6-------|  |------6-------|                        |--3--|
|---------------------------------------------------------------------|
|-------------------------------------17b17.5-------17b17.5-----------|
|-17-20-17-19-17----17----------------17b17.5-------17b17.5-----------|
|----------------19----19-17-19----17---------19p17---------19p17h19--|
|-------------------------------19------------------------------------|
|---------------------------------------------------------------------|


                           \1.5_____|   \1.5___/
   ~~~
|----------------------|--------------------------------|
|-19-------19b20==(19)-|-(19)r----(19)--0-----(0)---(0)-|
|-20-------------------|--------------------------------|
|----------------------|--------------------------------|
|----------------------|--------------------------------|
|----------------------|--------------------------------|


|-16-------16-------16-------17-------18-------19-|
|----15-------15-------15-------16-------17-------|
|-------14-------14-------14-------15-------16----|
|-------------------------------------------------|
|-------------------------------------------------|
|-------------------------------------------------|


               ~~
                            |-3-|   |-3-|   |-3-|   |-3-|
|-------19--------------|----------------------------------|
|-18----------17--------|----------------------------------|
|----17----17-17--------|-5-------4-------3-------2--------|
|-------------------x\--|---7p5h7---6p4h6---5p3h5---4p2h4--|
|-------------------x\--|----------------------------------|
|-------------------x\--|----------------------------------|


|----------|------------|------------|
|----------|------------|------------|
|-0--------|-(0)--------|-(0)--------|
|-0--------|-(0)--------|-(0)--------|
|----------|------------|------------|
|----------|------------|------------|


|---------------------|----------|---------------||
|---------------------|----------|---------------||
|-(0)----(0)------2-2-|-2--------|-(2)-----------||
|-----------------2-2-|-2--------|-(2)-----------||
|------------15\--0-0-|-0--------|-(0)----18\----||
|---------------------|----------|--------18\----||


 Interlude
            ~~                                          ~~
|----------------|--------------------------|-----------------|
|----------------|--------------------------|-----------------|
|-2---5---5-7----|-0----2-(2)-----------2---|-----5---5-7-----|
|-2---5---5-7----|-0----2-(2)---------------|-2---5---5-7-----|
|-0-0---0--------|----3-0-(0)-3b4==(3)r---0-|-0-0---0---------|
|----------------|----3---------------------|-----------------|


                                   ~~                     T
|-------------16-------|----------------|----------------------|
|----------------15----|----------------|----------------------|
|-0----2-(2)--------14-|-----5---5-7----|-0--------------------|
|-0----2-(2)-----------|-----5---5-7----|-0--------------------|
|------0-(0)-----------|-0-0---0--------|-------0-(0)-15s16p0--|
|----3-----------------|----------------|---0-3----------------|


            ~~
|----------------|---------------------|----------------|
|----------------|---------------------|----------------|
|-2---5---5-7----|-0--------2-(2)-8\---|-2---5\--0-2----|
|-2---5---5-7----|-0--------2-(2)-8\---|-2---5\--0-2----|
|-0-0---0--------|----------0-(0)------|-0-0----------0-|
|----------------|----3b3.5------------|----------------|


|--------------------------|----------------|---------------------------|
|--------------------------|----------------|---------------------------|
|-5\--0-2-(2)--------------|-----5\--0-2--0-|-5\--0-2-(2)-2-------------|
|-5\--0-2-(2)------------2-|-----5\--0-2--0-|-5\--0-2-(2)---------------|
|------------------------0-|-0-0------------|-------0-(0)---0-----------|
|--------------3b4==(3)r---|----------------|-----------------3b4==(3)r-|


|----------------|-----------------------------|------------------|
|----------------|-----------------------------|------------------|
|-2---5\--0-2--0-|-5\--0-----------------------|-2-----5\--0-2--0-|
|-2-2-5\--0-2--0-|-5\--0-----------------------|-2-----5\--0-2--0-|
|-0-0------------|-------0-(0)-<12>------------|-0-0-0------------|
|----------------|-------------------3b4==(3)r-|------------------|


                                \1/   \1/         \1.5/
                           |----3-----|
|----------------:--------------------------------------:---------------------||
|----------------:--------------------------------------:---------------------||
|-------0-(0)----:-(0)----------------------------------:---------------------||
|-9-7-5-0-(0)----:-(0)----[0]-([0])-([0])-([0])-([0])---:-([0])--0-0-0-[0]----||
|-7-5-3----------:--------------------------------------:---------------------||
|-------3-(3)----:-(3)----------------------------------:--------3-3-3--------||


 Guitar Solo
  |----6----| |----6----| |----6----| |----6----|
|-------------------------------------------------:
|-------------------------------------------------:
|-------------------------------------------------:
|-------------------------------------------------:
|-------3-----------3-----------3-----------3-----:
|-5p3h5---5p3-5p3h5---5p3-5p3h5---5p3-5p3h5---5p3-:


  |----6----| |----6----| |----6----| |----6----|
|--------------------------------------------------:
|--------------------------------------------------:
|--------------------------------------------------:
|--------------------------------------------------:
|-------3-----------3-----------3-----------3------:
|-5p3h5---5p3-5p3h5---5p3-5p3h5---5p3-5p3h5---5p3--:


  |----6----| |----6----| |----6----| |----6----|
|-------------------------------------------------:
|-------------------------------------------------:
|-------------------------------------------------:
|-------------------------------2-----------2-----:
|-------3-----------3-3-2-4p2h4---4p2-4p2h4---4h5-:
|-5p3h5---5p3-5p3h5-------------------------------:


  |----6----| |----6----| |-----6-----| |----6----|
|---------------------------------------------5------:
|-------------------------------[5]-5-5-8p5-----8p5--:
|-------------------5-5-5-7-5h7-------------8--------:
|-------5-5-5-7p5h7----------------------------------:
|-7p5h7----------------------------------------------:
|----------------------------------------------------:


  |----6----| |----6----| |-3-|         |----6----|
|-8-5-7-5-----8-5-7-5-------------------------------:
|---------8p5---------8p5-6p5---5-------------------:
|-----------------------------8---8p5s4h5p4---4-----:
|-------------------------------------------7---7p4-:
|---------------------------------------------------:
|---------------------------------------------------:


                                             ~~~~~~~~~
  |----6----| |----6----| |----6----|
|-----------------------------------------------:----------------:
|-----------------------------------------------:----------------:
|-----------------------------------------------:----------------:
|-2h3p2-0h2p0-----2-2h3p2-0h2p0-----------------:----------------:
|-------------2h3---------------3p2h3-0h2-------:----------------:
|-----------------------------------------2-(2)-:-(2)------21\---:


  |-3-|     |-3-|     |----6----| |----6----|
|---------------------------------------------:
|-------------------------------------------5-:
|---------------------------------------5-7---:
|-------5---------5---------5---5-7p5h7-------:
|-5h6h7---7-5h6h7---7-5h6h7---7---------------:
|---------------------------------------------:


  |-----6------| |-------6-------|  |--3--|   |-----5-----|
|-5------8-11-10-8----8----------------------------------------17---------:
|---7s10-----------11---10-8-------10-12-10-----------------17----20-17---:
|----------------------------10s11--------------17-19-17------------------:
|-------------------------------------------/19----------19---------------:
|-------------------------------------------------------------------------:
|-------------------------------------------------------------------------:


                                                            ~~~~~~~~~~~~
|---------17----------17----------17----------17-20b22==:=(20)r------20-20pb22-:
|-20b20.5----20-17-20----20-17-20----20-17-20-----------:----------------------:
|-------------------------------------------------------:----------------------:
|-------------------------------------------------------:----------------------:
|-------------------------------------------------------:----------------------:
|-------------------------------------------------------:----------------------:


|-20b22==(20)r==(20)-17h20p17----17h20p17----:
|-----------------------------20----------20-:
|--------------------------------------------:
|--------------------------------------------:
|--------------------------------------------:
|--------------------------------------------:


                                       |--3--|
|-17h20p17----17h20p17----17--------------------------:
|----------20----------20----20p19p17----17-----------:
|-------------------------------------20----20-19p17--:
|-----------------------------------------------------:
|-----------------------------------------------------:
|-----------------------------------------------------:


                                 ~~~~~~~~~~~~~~~~~~~~~
|-------------------------------------:----------------:
|-------------------------------------:----------------:
|-19-17----17-------------------------:----------------:
|-------19----19p17-------------19----:-(19)------19\--:
|-------------------19-18-17s16-16----:-(16)------16\--:
|-------------------------------------:----------------:


|--------------:
|--------------:
|--------------:
|--------------:
|--------------:
|---------20\--:


  PM-------------------------------------------------------------|
|----------------------------------------------------------------7-:
|---------------------------------------------------------9-7-10---:
|-----------------------------------4-5-7-6-7-9-----7-6-9----------:
|-------------3-5-4-5-7-------4-5-7-------------6-7----------------:
|-------3-5-7-----------4-5-7--------------------------------------:
|-3-5-7------------------------------------------------------------:


       |-3--| |----6-----| |----6----| |----6----|
|-10p7h8p7----7------------------------------------:
|----------10---10p7-8p7---------------------------:
|------------------------9-7-5-4-5-4---4-2---------:
|------------------------------------7-----4-2h3p2-:
|--------------------------------------------------:
|--------------------------------------------------:


                      ~~~~~~~~~~~    ~~~~~~~
  |----6----| |-3-|
|----------------------------------:-----------:
|----------------------------------:------7----:
|----------------------------------:-5---------:
|-0-2-0---------------4-(4)--(4)-0-:-----------:
|-------2h3p2-0-2-3-0--------------:-----------:
|----------------------------------:-----------:


  PM--------------------------------------|         ~
  |----6----| |----6----| |----6----| |----6----|
|-5-----------------------------------------------:------:
|---7---7-----------------------------------------:------:
|-----8---8-5-8-5---5-----------------------------:------:
|-----------------7---7-4-7-4---3-----------------:------:
|-----------------------------5---6-3-6-3---3-----:------:
|-----------------------------------------5---5-3-:-2----:

 
|-----------------------------:
|-------------------10tr13----:
|--------------8h11-----------:
|---------7h10----------------:
|-----6h9---------------------:
|-5h8-------------------------:


                                    ~~~
|-11tr14----14tr17--17tr20-------:-21-------------:
|--------------------------17s20-:----------------:
|--------------------------------:----------------:
|--------------------------------:----------------:
|--------------------------------:----------------:
|--------------------------------:----------17\---:


                                      |-3-|
|------------:------------:------------------:
|------------:------------:------------------:
|-2--0--2----:-(2)--------:-(2)-----------4--:
|-2--0--0----:-(0)--------:-(0)------/6-7----:
|-0-----0----:-(0)--------:-(0)--------------:
|----3-------:------------:------------------:


  ~~~~~~~~~                ~~~~~~~            ~
                               |-3--|   |-3-|
|----------------------:-------------------------:
|----------------------:-------------------------:
|-6----(6)-4-----------:-------------------------:
|------------7-6h7p6-4-:----------3-6-6s7-6-4----:
|----------------------:-2s4--(4)----------------:
|----------------------:----------------------2--:


                             PM------------------|
                    |------6------|  |-----6-----|
|-------------------------7------------------------:
|---------------------7s8---10---------------------:
|-----------------2-7----------9----------9------9-:
|---------4-----4----------------11----11------9---:
|---2-3-4---4s5---------------------12------11-----:
|-5------------------------------------------------:


           PM-----|     PM
   |-----6------|  |-3--|
|-12-10-9--------------------------------:-------------:
|---------10-----------------------------:-0-----------:
|------------9----------9s8tr9-(8tr9)----:-0-----------:
|--------------11----11------------------:-------------:
|-----------------12---------------------:-------------:
|----------------------------------------:-------------:


|-------------17----------17----17h20-17----17h20-:
|-17h20p17h20----20p17h20----20----------20-------:
|-------------------------------------------------:
|-------------------------------------------------:
|-------------------------------------------------:
|-------------------------------------------------:


|-17----17h20-17----17h20-19p17-17-17-20-19-17----17-17-:
|----20----------20----------------------------20-------:
|-------------------------------------------------------:
|-------------------------------------------------------:
|-------------------------------------------------------:
|-------------------------------------------------------:


   |--3--|              |------6-------|  |------6-------|  |------6-------|
|-21-18-17-21-21-17----20-20----18-------17-------15-------14-------13-------:
|-------------------20-------19----20-18----18-16----17-15----17-14----15-13-:
|----------------------------------------------------------------------------:
|----------------------------------------------------------------------------:
|----------------------------------------------------------------------------:
|----------------------------------------------------------------------------:


 2/4
   |------6-------|  |--3--|
|-12-------11-------10-------9-------0--:
|----15-13----14-12----13-11---11-10----:
|---------------------------------------:
|---------------------------------------:
|---------------------------------------:
|---------------------------------------:


 4/4
  |----6----| |----6----| |----6----| |----6----|
|-7p4p0-7p4p0-7p4p0-7p4p0-8p5p0-8p5p0-8p5p0-8p0h5-:
|-------------------------------------------------:
|-------------------------------------------------:
|-------------------------------------------------:
|-------------------------------------------------:
|-------------------------------------------------:


  |----6----| |----6----| |----6----| |----6----|
|-7p4p0-7p4p0-7p4p0-7p4p0-8p5p0-8p5p0-8p5p0-8p5p0-:
|-------------------------------------------------:
|-------------------------------------------------:
|-------------------------------------------------:
|-------------------------------------------------:
|-------------------------------------------------:


   |----6-----|  |----6-----|  |----6-----|  |----6-----|
|-12p8p0-12p8p0-12p8p0-12p8p0-10p7p0-10p7p0-10p7p0-10p7p0-:
|---------------------------------------------------------:
|---------------------------------------------------------:
|---------------------------------------------------------:
|---------------------------------------------------------:
|---------------------------------------------------------:


  |----6----| |----6----| |----6----| |----6----|
|-8p5p0-8p5p0-8p5p0-8p5p0-7p4p0-7p4p0-7p4p0-7p4p0--:
|--------------------------------------------------:
|--------------------------------------------------:
|--------------------------------------------------:
|--------------------------------------------------:
|--------------------------------------------------:


   |----6-----|  |----6-----|  |----6-----|  |----6-----|
|---------------------------------------------------------:
|-12p8p0-12p8p0-12p8p0-12p8p0-10p7p0-10p7p0-10p7p0-10p7p0-:
|---------------------------------------------------------:
|---------------------------------------------------------:
|---------------------------------------------------------:
|---------------------------------------------------------:


                           T        T
  |----6----| |----6----|
|---------------------------------------------:
|-8p5p0-8p5p0-8p5p0-8p5s4-12p7p4h7-12p7p4h7---:
|---------------------------------------------:
|---------------------------------------------:
|---------------------------------------------:
|---------------------------------------------:


   T        T          T        T
                |-3-|
|---------------------------------------:
|-12p7p4h7-12p4h7p4h5-12p8p5h8-12p8p5h8-:
|---------------------------------------:
|---------------------------------------:
|---------------------------------------:
|---------------------------------------:


   T        T        T            T
|----------------------------------------------:
|-12p8p5h8-12p8p5h7-17p9h12p9h12-17p9h12p9h12--:
|----------------------------------------------:
|----------------------------------------------:
|----------------------------------------------:
|----------------------------------------------:


   T            T         T              T
|------------------------------------------------------:
|-17p9h12p9h12-17p9h12p9-17p10h13p10h13-17p10h13p10h13-:
|------------------------------------------------------:
|------------------------------------------------------:
|------------------------------------------------------:
|------------------------------------------------------:


   T              T              T              T
|--------------------------------------------------------------:
|-17p10h13p10h13-17p10h13p11s12-20p12h15p12h15-20p12h15p12h15--:
|--------------------------------------------------------------:
|--------------------------------------------------------------:
|--------------------------------------------------------------:
|--------------------------------------------------------------:


   T              T              T           T
|-------------------------------------------------------:
|-20p12h15p12h15-20p12h15p12s13-22p17p13h17-22p17p13h17-:
|-------------------------------------------------------:
|-------------------------------------------------------:
|-------------------------------------------------------:
|-------------------------------------------------------:


   T           T        T           T        T           T
                           |------6-------|  |-----5-----|
|-----------------------------------------------------------:
|-22p18p13h18-22p18p14-22p17p14h17-21p17p14-21p17p14h17-21--:
|-----------------------------------------------------------:
|-----------------------------------------------------------:
|-----------------------------------------------------------:
|-----------------------------------------------------------:


  \2.5______|       \1.5___/
|-----------------:------------------------:
|-----------------:------------------------:
|-----------------:------------------------:
|-----------------:------------------------:
|-0--------(0)----:------------------------:
|-----------------:-0-----(0)------(0)-(0)-:


        \2/   \2.5/    \2.5/   \2.5/   \1/
|----------------------------------------------:
|----------------------------------------------:
|-<5>-(<5>)-(<5>)----(<5>)---(<5>)---(<5>)-----:
|------------------------------------------12--:
|------------------------------------------12--:
|----------------------------------------------:


  PM--------------------------------------------------------------|
|---------------------------------:---------------------------------:
|---------------------------------:---------------------------------:
|-7-5-----8-5-----7-5-----8-5-----:-8-5-7-5-----7-5-----8-5-7-5-----:
|-----7-5-----7-5-----7-5-----7-5-:---------7-5-----7-5---------7-7-:
|---------------------------------:---------------------------------:
|---------------------------------:---------------------------------:


   PM--------------------------------------
|-----------------------------------------:
|-----------------------------------------:
|-10-8------11-8------10-8------11-8------:
|------10-8------10-8------10-8------10-8-:
|-----------------------------------------:
|-----------------------------------------:


 ----------------------------------------|
|-------------------------------------------:
|-------------------------------------------:
|-11-8-10-8------10-8------11-8-------------:
|-----------10-8------10-8------10-10-12-12-:
|-------------------------------------------:
|-------------------------------------------:


   PM----------------------------------------------
|-------------------------------------------------:
|-------------------------------------------------:
|-14-12-------15-12-------15-13-------16-13-------:
|-------14-12-------14-12-------15-13-------15-14-:
|-------------------------------------------------:
|-------------------------------------------------:


 ----------------------------------------------|
|-------------------------------------------------:
|-------------------------------------------------:
|-16-14-------17-14-------17-15-------18-15-------:
|-------16-14-------16-14-------17-15-------17-17-:
|-------------------------------------------------:
|-------------------------------------------------:


   PM---------------------|
|----------------------------------------------:
|----------------------------20b22==(20)-(20)--:
|-18-16-------19-16-------19-------------------:
|-------19-17-------17-17----------------------:
|----------------------------------------------:
|----------------------------------------------:


                 \1.5___/      \1___/      \2___/
    ~~~~~
|--------------:-------------------------------------------:
|-(20)r--------:-------------------------------------------:
|--------------:-0-----(0)-(0)-----------------------------:
|--------------:---------------0---(0)-(0)-----------------:
|--------------:---------------------------0---(0)-(0)-----:
|--------------:-------------------------------------------:


                  Outro - A Tempo
                     PM                          ~
|---------------||-----------------|---------------------|
|---------------||-----------------|---------------------|
|---------------||-2---5\-0-0-2--0-|-5\--0-2-(2)---------|
|---------------||-2---5\-0-0-2--0-|-5\--0-2-(2)---------|
|--------17\----||-0-0-------------|------------------0--|
|--------18\--0-||-----------------|-------------3--0----|


|----------------|-------------------------|-----------------|
|----------------|-------------------------|-----------------|
|-2-0-5\--0-2--0-|-5\--0-------------------|-----5\--0-2-----|
|-2-0-5\--0-2--0-|-5\--0-------13s14-15-14-|-----5\--0-2-----|
|-0--------------|-------0-(0)-------------|-0-0----------0--|
|----------------|-------------------------|--------------3--|


                                                         \1
|--------------------------|---------------|-----------------------|
|--------------------------|---------------|-----------------------|
|-5\--0-2-(2)--------------|-2--5\--0-2--0-|-5\--0-2-(2)-----------|
|-5\--0-2-(2)--------------|-2--5\--0-2--0-|-5\--0-2-(2)-----------|
|-------0-(0)------------0-|-0-------------|-------0-(0)-----------|
|--------------3b4==(3)r---|---------------|-------------0--(0)-3--|


|----------------|---------------------------|----------------|
|----------------|---------------------------|----------------|
|-2-0-5\--0-2----|-5--0-2-(2)----------------|-2-0-5\--0-2----|
|-2-0-5\--0-2----|-5--0-2-(2)-/14b16==(14)r--|-2-0-5\--0-2----|
|-0------------0-|---------------------------|-0------------0-|
|----------------|---------------------------|----------------|


|----------------:------------|-------------*|
|----------------:------------|-------------*|
|-------0-(0)----:-(0)--------|-0-2---------*|
|-9-7-5-0-(0)----:-(0)--------|-0-2---------*|
|-7-5-3----------:------------|-------------*|
|-------3-(3)----:-(3)--------|-------------*|





Comments


Popular Ozzy Osbourne tabs & chords
11 Silver Bass Tabs
Mr Crowley Bass Tabs
No More Tears 2 Bass Tabs
Crazy Train 1 Chords
Crazy Babies Tabs
I Dont Wanna Stop Intro Tabs
I Dont Want To Change The World 1 Tabs
My Little Man Tabs
Nativity In Black Tabs
You Lookin At Me Lookin At You Tabs


Song lyrics



↑ Back to top | Tablatures and chords are parodies/interpretations of the original songs. You may use it for private study, scholarship, research or language learning purposes only
© 2014 AZChords.com Contact us | Privacy policy | DMCA | Add/correct tabs | Request tabs | Top 50 tabs