>
 >
Shot In The Dark 1

Shot In The Dark 1 Guitar Tabs

Ozzy Osbourne - Shot In The Dark 1 chords, tabs, tablatures, lyrics

Guitar lessons | Add/correct | Request | Top 50 tabs Artists:  A B C D E F G H I J K L M N O P Q R S T U V W X Y Z 0-9

Shot In The Dark 1 Guitar Tabs – Ozzy Osbourne

CD, Sheet music, Poster

Do you like Shot In The Dark 1? Share with your friends now
Bass TabsChordsTabsTabs v2Tabs v3Tabs v4Tabs v5Ukulele
SHOT IN THE DARK

                                by Ozzy Osbourne
                    

Words and Music by Ozzy Osbourne and Phil Soussan



Here is the complete transcription of this song with solo.


 Intro
  Moderate Rock Q=124
  Bm   Aadd9/B   Bm     Aadd9/B              G/B     Aadd9/B   G/B
 4/4
  Gtr III
  Q.   E +H        Q.    E   +H                Q.    E  +Q.    E
  |    |  |        |     |    |                |     |   |     |
  /    /  /        /     /    /                /     /   /     /

  Gtr I
  W                Q.    E   +Q     Q         +H        +H
|--------------|---------------------------|---------------------|
|--------------|-<12>---<7>-(<7>)--<5>b7===|=(<5>)r====(<5>)-----|
|--------------|---------------------------|---------------------|
|--------------|---------------------------|---------------------|
|--------------|---------------------------|---------------------|
|--------------|---------------------------|---------------------|


  +W
   |
   /

   E  E      +E    +E       +E    +E    +Q
|---------------------------------------------|
|---------------------------------------------|
|----<3>b5==(<3>)r(<3>)b7==(<3>)r(<3>)-(<3>)--|
|---------------------------------------------|
|---------------------------------------------|
|---------------------------------------------|


  Bm      Aadd9/B   Bm     Aadd9/B
    Q.    E +H        Q.    E   +H
    |     |  |        |     |    |
    /     /  /        /     /    /

   +W                 Q.    E   +Q     Q
|-----------------|------------------------|
|-----------------|-<12>---<7>-(<7>)--<5>--|
|-(<3>)-----------|------------------------|
|-----------------|------------------------|
|-----------------|------------------------|
|-----------------|------------------------|


  G/B   Aadd9/B  G/B
   Q.   E +Q.      E          +W
   |    |  |       |           |
   /    /  /       /           /

   H.          E   S    S      H.      Q
|-<5>----------------------|-<12>----------||
|--------------------------|-<12>----------||
|--------------------------|-<12>----------||
|---------------------<12>-|-----------x\--||
|----------------<12>------|-----------x\--||
|--------------------------|---------------||


  Bm    A                 Bm    A
    PM|       PM------|     PM|       PM------|
  E E E E +E  S S S S E   E E E E +E  S S S S E
|-----------------------|-----------------------|
|-----------------------|-----------------------|
|-7-----6-(6)-----------|-7-----6-(6)-----------|
|-7-----7-(7)-----------|-7-----7-(7)-----------|
|---0-0-------0-0-----0-|---0-0-------0-0-----0-|
|-----------------0-3---|-----------------0-3---|


  G/B   A         G
    PM|                     PM------|
  E E E E +E  E E E   +S  S E E E E E  E     +S  +S
|-------------------|----------------------------------|
|-------------------|----------------------------------|
|-7-----6-(6)-2---4-|-(4)------------------------------|
|-5-----5-(5)-2p0-5-|-(5)p0-5-------2-[5]b7==(5)r(5)---|
|---0-0-------------|-----------0-3--------------------|
|-------------------|---------3------------------------|


  Bm    A                 Bm    A
    PM|       PM------|     PM|       PM------|
  E E E E +E  S S S S E   E E E E +E  S S S S E
|-----------------------|-----------------------|
|-----------------------|-----------------------|
|-7-----6-(6)-----------|-7-----6-(6)-----------|
|-7-----7-(7)-----------|-7-----7-(7)-----------|
|---0-0-------0-0-----0-|---0-0-------0-0-----0-|
|-----------------0-3---|-----------------0-3---|


  G/B   A         G
    PM|
  E E E E +E  E E E   E  S    +S    +Q    S    +S     +E  +Q
|-------------------|--------------------------------------------||
|-------------------|---[5]b7r(5)b7-(5)--[5]b7r(5)b7==(5)-(5)r\--||
|-7-----6-(6)-2---4-|--------------------------------------------||
|-5-----5-(5)-2h5-5-|--------------------------------------------||
|---0-0-------------|--------------------------------------------||
|-------------------|-0------------------------------------------||


   Verse
    Bsus2                                    Em/B
    Gtr IV
    E E E E +E  E +Q      E  E E E E E E E   E E E E +H       E E E E E E E E
||--------------2-(2)--|-------------------|-------0-(0)----|-------------0---|
||o-------2-(2)--------|-----------2---2---|-------0-(0)----|---------2-----2-|
||------4--------------|---------4---4---2-|-----4----------|-------4---4-----|
||----4----------------|-------4-----------|---5------------|-----5-----------|
||o-0------------------|-----0-------------|-0--------------|---0-------------|
||---------------------|-------------------|----------------|-----------------|
|
|   Gtr I
|   W                    +W                  W                W
||---------------------|-------------------|----------------|-----------------|
||o--------------------|-------------------|----------------|-----------------|
||--4------------------|-(4)---------------|----------------|-----------------|
||--4------------------|-(4)---------------|----------------|-----------------|
||o-0------------------|-(0)---------------|----------------|-----------------|
||---------------------|-------------------|----------------|-----------------|


  Bsus2                              Em/B
  E E E E +H       E E E E E E E E   E E E E +H       E E E E E E E E
|-------2-(2)----|-----------------|-------0-(0)----|-------------0----||
|-------2-(2)----|---------2---2---|-------0-(0)----|---------2-----2--||
|-----4----------|-------4---4---2-|-----4----------|-------4---4------||
|---4------------|-----4-----------|---5------------|-----5------------||
|-0--------------|---0-------------|-0--------------|---0--------------||
|----------------|-----------------|----------------|------------------||


 Pre-Chorus
  $
  G/B
  Gtr IV
  E E E E +E  E Q       E E E E +Q   Q
|---------------------|-----0--------------|
|---------------------|--------------------|
|-7-----6-(6)---7-----|-7-----6-(6)--7-----|
|---5-----------------|---5----------------|
|-----0-------0-------|--------------------|
|---------------------|--------------------|
|
| Gtr I
|   PM|           PM|     PM|          PM|
| E E E E +Q    E S S   E E E E +Q   E S S
|---------------------|--------------------|
|---------------------|--------------------|
|-7-----6-(6)---7-----|-7-----6-(6)--7-----|
|-5-----5-(5)---5-----|-5-----5-(5)--5-----|
|---0-0-----------0-0-|---0-0----------0-0-|
|---------------------|--------------------|


  Bm                   Bsus4
  E E E E +Q   Q       E E E E +Q   Q
|-----0--------------|-----0----------------|
|--------------------|----------------------|
|-7-----6-(6)--4-----|-7-----6-(6)--4-------|
|---5----------------|---5------------------|
|--------------------|----------------------|
|--------------------|----------------------|
|
|   PM|          PM|     PM|          PM|
| E E E E +Q   E S S   E E E E +Q   E S S
|--------------------|----------------------|
|--------------------|----------------------|
|-7-----6-(6)--4-----|-9-----6-(6)--4-------|
|-4-----4-(4)--4-----|-4-----4-(4)--4-------|
|---0-0----------0-0-|---0-0----------0-0---|
|--------------------|----------------------|


  G/B                                        Bm                 F#m
  E E E E +E  E Q       E E E E +Q   E E     E E E E +E  E Q    W
|-----0-------0-------|-----0--------0-----|-------0-(0)------|---------------||
|---------------------|--------------------|-----7-------7----|---------------||
|-7-----6-(6)---7-----|-7-----6-(6)----6---|---------------6--|---------------||
|---5-----------------|---5----------------|-4----------------|-4-------------||
|---------------------|--------------------|---0--------------|---------------||
|---------------------|--------------------|------------------|---------------||
|
|   PM|           PM|     PM|          PM|     PM|
| E E E E +Q    E S S   E E E E +Q   E S S   E E E E +Q    Q    H.       Q
|---------------------|--------------------|------------------|---------------||
|---------------------|--------------------|------------------|---------------||
|-7-----6-(6)---7-----|-7-----6-(6)--7-----|-7-----6-(6)---4--|-6-------------||
|-5-----5-(5)---5-----|-5-----5-(5)--5-----|-4-----4-(4)---4--|-4-------------||
|---0-0-----------0-0-|---0-0----------0-0-|---0-0------------|---------------||
|---------------------|--------------------|------------------|---------17\---||


 Chorus
  Bm         A                   E5    D5       B5      C5
  Gtr I
                   PM        PM
  W          E E E E E  Q    E    Q  E  E  +Q   E E   E E H    S S E
|----------|-------------------|--------------------|----------------|
|----------|-------------------|--------------------|----------------|
|-4--------|-x-9p7---7--6\-----|--------------------|----------------|
|-4--------|---7-----7-(7)\----|--------------------|----------------|
|-0--------|-------0-----------|-12--x-10-(10)--7-7-|-x-8-8--------0-|
|----------|-----------------0-|-10-----8--(8)--5-5-|---6-6----0h3---|


                                                        1.
  Bm         A                     E5    D5        B5      C5
                          PM
  W          E  E  E a  E E Q  E    Q  E  E  +Q    E E   E E H.      +W
|----------|---------------------|---------------------|-----------|--------|
|----------|---------------------|---------------------|-----------|--------|
|-4--------|-9p=7--9-9s11---9--7-|---------------------|-----------|--------|
|-4--------|-7-(7)-7-7s=9---7--7-|---------------------|-----------|--------|
|-0--------|--------------0------|-12--x-10-(10)\--7-7-|-x-8-8-----|-(8)----|
|----------|---------------------|-10-----8--(8)\--5-5-|---6-6-----|-(6)----|


  Bm    A                 Bm    A
    PM|       PM------|     PM|       PM------|
  E E E E +E  S S S S E   E E E E +E  S S S S E
|-----------------------|-----------------------|
|-----------------------|-----------------------|
|-7-----6-(6)-----------|-7-----6-(6)-----------|
|-7-----7-(7)-----------|-7-----7-(7)-----------|
|---0-0-------0-0-----0-|---0-0-------0-0-----0-|
|-----------------0-3---|-----------------0-3---|


  G/B   A         G
    PM|                     PM------|
  E E E E +E  E E E   +S  S E E E E E  E     +S  +S
|-------------------|--------------------------------|
|-------------------|--------------------------------|
|-7-----6-(6)-2---4-|-(4)----------------------------|
|-5-----5-(5)-2p0-5-|-(5)p0-5-------2-[5]b7==(5)r(5)-|
|---0-0-------------|-----------0-3------------------|
|-------------------|---------3----------------------|


  Bm    A                 Bm    A
    PM|       PM------|     PM|       PM------|
  E E E E +E  S S S S E   E E E E +E  S S S S E
|-----------------------|-----------------------|
|-----------------------|-----------------------|
|-7-----6-(6)-----------|-7-----6-(6)-----------|
|-7-----7-(7)-----------|-7-----7-(7)-----------|
|---0-0-------0-0-----0-|---0-0-------0-0-----0-|
|-----------------0-3---|-----------------0-3---|


  G/B   A         G
    PM|                                                  ~~~~
                                       |-3-|
  E E E E +E  E E E   E  a     +E  +E  S S S E E  a     +Q
|-------------------|------------------------------------------||
|-------------------|---[5]b7==(5)r(5)-2h5p2---2--------------o||
|-7-----6-(6)-2---4-|-x----------------------2---[2]b4==(2)r---||
|-5-----5-(5)-2h5-5-|------------------------------------------||
|---0-0-------------|-----------------------------------------o||
|-------------------|------------------------------------------||


  2.,3.
     C5                  Bm         A
               PM----|                   PM|   PM|   PM|      PM|
   E E Q  +Q   S S S S   W          a  E S S E S S E S S S  S S S
|----------------------|----------|--------------------------------|
|----------------------|----------|--------------------------------|
|----------------------|-4--------|-9s11-----9-----7-----9s11------|
|----------------------|-4--------|-7s=9-----7-----7-----7s=9------|
|--x-8-8--(8)------0h3-|-0--------|------0-0---0-0---0-0------0-0--|
|----6-6--(6)--0h3-----|----------|--------------------------------|


                                            To Coda
  E5    D5        B5      C5
                                             PM----|
   Q  E  E  +Q    E E   E E H.        +H     E E E E
|---------------------|-------------|----------------||
|---------------------|-------------|----------------||
|---------------------|-------------|----------------||
|---------------------|-------------|----------------||
|-12--x-10-(10)\--7-7-|-x-8-8-------|-(8)----8-8-8-8-||
|-10-----8--(8)\--5-5-|---6-6-------|-(6)----6-6-6-6-||


 Bridge
  D5                                 C5
  Gtr I
  W             +W                 E E +H.            +Q.    S S E E E E
  |              |                 | |  |              |     | | | | | |
  /              /                 / /  /              /     / / / x / x

  Gtr II
                     PM|     PM|
  H    Q  E E    E E E E E E E E   E E +H     +E  E    E E E E   E E E E
|-------------|------------------|------------------|--------------------|
|-------------|-10s7-----8s7-----|-7s5-(5)----(5)---|--8s5-------7s5-----|
|-----------7-|------7-------7---|-7s5-(5)----(5)---|------5---------5---|
|-------------|--------7-------7-|-7s5-(5)----(5)-5-|--------5---------5-|
|-------------|------------------|------------------|--------------------|
|-------------|------------------|------------------|--------------------|


    D5                                    C5
  E E +H.            +H.          E E   E E +H.            +H       Q   E E
  | |  |              |           | |   | |  |              |       |   | |
  / /  /              /           / x   / /  /              /       /   / x

  E E +H     +E  E    E E E E E E E E   E E +H     +E  E    E E E E E E E E
|------------------|------------------|------------------|-------------------||
|-5s7-(7)----(7)---|-10s7-----8s7-----|-7s5-(5)----(5)---|--8s5-----7s5------||
|-5s7-(7)----(7)-7-|------7-------7---|-7s5-(5)----(5)---|------5-------5----||
|-5s7-(7)----(7)---|--------7-------7-|-7s5-(5)----(5)-5-|--------5-------5--||
|------------------|------------------|------------------|-------------------||
|------------------|------------------|------------------|-------------------||


 Guitar Solo
         B5            B5                              B5
           E    E        Q     E   E               E   E
           |    |        |     |   |               |   |
           /    o        /     x   o               x   /

                         ~~~~~~~~~~                ~~~~~
                                   |-3--|
   a      +E   +E       +Q    +E   S  S S  a      +Q
|----------------------------------7---------------------|
|-10b12==(10)r(10)b12==(10)--(10)r---10-7-10b12==(10)r---|
|--------------------------------------------------------|
|--------------------------------------------------------|
|--------------------------------------------------------|
|--------------------------------------------------------|


                 B5                                E/G#
  +E      E      Q             E     E          E  E
   |      |      |             |     |          |  |
   /      o      /             x     o          x  /

                                                ~~~
   |-3--| |-3--| |-3-| |-3--|  |-3-|
   S  S S S    E S S S S    E  S S S S S a     +Q
|--7-------------------------------------------------|
|----10p7------7-7h8p7------7------------------------|
|---------9b11---------9b11---10p9p7---7-9b11==(9)---|
|------------------------------------9---------------|
|----------------------------------------------------|
|----------------------------------------------------|


           E/G#              G5       G5
  +E   E   Q     E   E     E E   +E E E  E E E E E
   |   |   |     |   |     | |    | | |  | | | | |
   /   o   /     x   o     x /    / o /  o o o o o

   ~~~~                                    ~
   |--3--| |-3-| |--3--|
  +Q     E E E E E E   E a E E    E E E  E H
|------------------------------|-------------------|
|------------------------------|-------------------|
|-(9)r---9-6-----6-------------|-------------------|
|------------9-7---7-----7h9---|-------------------|
|----------------------9-----7-|--7s9-9s12s9-------|
|------------------------------|-------------------|


    B5  B5               B5           B5                        E/G#
    E E Q       E E  E   E       +E E  Q       E        E   E   E
    | | |       | |  |   |        | |  |       |        |   |   |
    / o /       x o  x   /        / o  /       x        o   x   /

                                                            ~~~~
  a E E S S S S E E  S S S S   a  E E  S S S S S S     +E  +Q
|----------------------------|------------------------------------|
|----------------------------|--------10p7---7--------------------|
|-------9p6---6-----11p7---7-|------7------7---7h9b11==(9)-(9)r---|
|-5h7-7-----7---7-7------9---|-7s=9-------------------------------|
|----------------------------|------------------------------------|
|----------------------------|------------------------------------|


                 E/G#                       G5
  +E     E       Q         E     E        E E
   |     |       |         |     |        | |
   /     o       /         x     o        x /

   E.      E.       E      E.       E.      E
|-------------------------------------------------|
|--7tr15---8tr15---10tr15-12tr15---10tr15---8tr15-|
|-------------------------------------------------|
|-------------------------------------------------|
|-------------------------------------------------|
|-------------------------------------------------|


                        D.S. al Coda
           G5
  +E     E  E     E  E     E  E     E
   |     |  |     |  |     |  |     |
   /     o  /     o  o     o  o     o

   Q        Q        Q        Q
|-------------------------------------||
|-12tr19---14tr19---15tr19---17tr19---||
|-------------------------------------||
|-------------------------------------||
|-------------------------------------||
|-------------------------------------||


 Outro
  &
  Bm    A                 Bm    A
  Gtr I
    PM|       PM------|     PM|       PM------|
  E E E E +E  S S S S E   E E E E +E  S S S S E
|-----------------------|-----------------------|
|-----------------------|-----------------------|
|-7-----6-(6)-----------|-7-----6-(6)-----------|
|-7-----7-(7)-----------|-7-----7-(7)-----------|
|---0-0-------0-0-----0-|---0-0-------0-0-----0-|
|-----------------0-3---|-----------------0-3---|


  G/B   A         G
    PM|                     PM------|
  E E E E +E  E E E   +S  S E E E E E  E     +S  +S
|-------------------|--------------------------------|
|-------------------|--------------------------------|
|-7-----6-(6)-2---4-|-(4)----------------------------|
|-5-----5-(5)-2p0-5-|-(5)p0-5-------2-[5]b7==(5)r(5)-|
|---0-0-------------|-----------0-3------------------|
|-------------------|---------3----------------------|


  Bm    A                 Bm    A
    PM|       PM------|     PM|       PM------|
  E E E E +E  S S S S E   E E E E +E  S S S S E
|-----------------------|-----------------------|
|-----------------------|-----------------------|
|-7-----6-(6)-----------|-7-----6-(6)-----------|
|-7-----7-(7)-----------|-7-----7-(7)-----------|
|---0-0-------0-0-----0-|---0-0-------0-0-----0-|
|-----------------0-3---|-----------------0-3---|


  G/B   A         G
    PM|
  E E E E +E  E E E   +E  S S E S S E a E E E
|-------------------|--------------------------|
|-------------------|---------3-----5----------|
|-7-----6-(6)-2---4-|-(4)-2s4---4s6---6s4-4p3--|
|-5-----5-(5)-2h5-5-|-(5)----------------------|
|---0-0-------------|--------------------------|
|-------------------|--------------------------|


  Bm    A                 Bm    A                 G/B   A         G
    PM|       PM------|     PM|       PM------|     PM|
  E E E E +E  S S S S E   E E E E +E  S S S S E   E E E E +E  E E E
|-----------------------|-----------------------|-------------------|
|-----------------------|-----------------------|-------------------|
|-7-----6-(6)-----------|-7-----6-(6)-----------|-7-----6-(6)-2---4-|
|-7-----7-(7)-----------|-7-----7-(7)-----------|-5-----5-(5)-2h5-5-|
|---0-0-------0-0-----0-|---0-0-------0-0-----0-|---0-0-------------|
|-----------------0-3---|-----------------0-3---|-------------------|


                                          ~~~
        |--3--|      |-3-|       |3|
  +E    S  S  S S  S S S S S T T E S a   +Q
|----------------------------------4------------*|
|-----/12p11p10-9-10-9p8p7-5h6h7h8---7b8-(7)----*|
|-(4)-------------------------------------------*|
|-(5)-------------------------------------------*|
|-----------------------------------------------*|
|-----------------------------------------------*|





Comments


Popular Ozzy Osbourne tabs & chords
I Just Want You Bass Tabs
Nativity In Black Bass Tabs
No Bone Movies Bass Tabs
S.A.T.O. Bass Tabs
Crazy Train Chords
Here For You Chords
A.V.H. Tabs
In My Life Tabs
Trap Door Intro Tabs
Old La Tonight Ukulele


Song lyrics



↑ Back to top | Tablatures and chords are parodies/interpretations of the original songs. You may use it for private study, scholarship, research or language learning purposes only
© 2014 AZChords.com Contact us | Privacy policy | DMCA | Add/correct tabs | Request tabs | Top 50 tabs