» » »

Ozzy Osbourne, See You On The Other Side Tabs (ver.2)

Artists:  A B C D E F G H I J K L M N O P Q R S T U V W X Y Z # 

See You On The Other Side Tabs (ver.2)

Ozzy Osbourne Tabs
 Rating:
4/5 (4 votes)
See You On The Other Side lessons Tabs too difficult? Try these video lessons and learn fast
                Ozzy Osbourne—See You On The Other Side
Standard Tuning      Play Song With Light Distortion


Start at 0.09
|-0-------|-------------------------|-------------------------|
|---3-----|-------------------------|-------------------------|
|-----0---|-------------------0-----|-------------------0-----|
|-------4-|---0---2-----4-------4---|---0---2-----4-------4---|
|---------|-----2---2-----2-------2-|-----2---2-----2-------2-|--------            
|---------|-3---------3-----3-------|-3---------3-----3-------|        |             
                                                                        x3
|-------------------------|---------------------------|                |      
|-------------------------|---------------------------|                |    
|-------------------0-----|-------------------0-------|----------------        
|---0---2-----4-----------|---0---2-----4-------0-----|
|-----2---2-----2-----0-2-|-3---3---3-3---3-3-----0---|
|-0---------0-----0-------|---------------------------|

"I cant seem to see you baby..."
|------3-------3--|-----3------------|
|-3----3-------3--|---3----3-3-------|
|-2----0-------0--|------------0-0---|
|-0----2-------0--|------------------|
|-0----3-------2--|------------------|
|--------------3--|------------------|               
                                                      
 Although my eyes are open wide                                                    
|------3-------3--|---------------------|             
|-3----3-------3--|---------------------|            
|-2----0-------0--|---------------------|               
|-0----2-------0--|-3/5-----5-----5--3--|
|-0----3-------2--|-3/5-----5-----5--3--|
|--------------3--|-1/3-3-3-3-3-3-3--1--|

    But I know ill see you once more
|------3-------3--|--------|             
|-3----3-------3--|-pick---|           
|-2----0-------0--|-scr*pe-|               
|-0----2-------0--|--------|
|-0----3-------2--|--------|
|--------------3--|--------|

 When I see you, ill see you on the other side
|------3-------3--|-----3------------|
|-3----3-------3--|---3----3-3-------|
|-2----0-------0--|------------0-0---|
|-0----2-------0--|------------------|
|-0----3-------2--|------------------|
|--------------3--|------------------|


"Yes ill see you, see you on the other side..."
|----------------------|-----0---0---0---|
|----------------------|-----3---3---3---|
|-2-------4--5---------|-----0---0---0---|
|-2-----x-4--5-------0-|-2---------------| x2
|-0-----x-2--3-------0-|-2---------------|
|----------------------|-0---------------|


|-0-------|-------------------------|-------------------------|
|---3-----|-------------------------|-------------------------|
|-----0---|-------------------0-----|-------------------0-----|
|-------4-|---0---2-----4-------4---|---0---2-----4-------4---|
|---------|-----2---2-----2-------2-|-----2---2-----2-------2-|--------            
|---------|-3---------3-----3-------|-3---------3-----3-------|        |             
                                                                        x3
|-------------------------|---------------------------|                |      
|-------------------------|---------------------------|                |    
|-------------------0-----|-------------------0-------|----------------        
|---0---2-----4-----------|---0---2-----4-------0-----|
|-----2---2-----2-----0-2-|-3---3---3-3---3-3-----0---|
|-0---------0-----0-------|---------------------------|


  Though I know we must be parted
|------3-------3--|-----3------------|
|-3----3-------3--|---3----3-3-------|
|-2----0-------0--|------------0-0---|
|-0----2-------0--|------------------|
|-0----3-------2--|------------------|
|--------------3--|------------------|               
                                                      
  As sure as stars are in the sky                                         
|------3-------3--|---------------------|             
|-3----3-------3--|---------------------|            
|-2----0-------0--|---------------------|               
|-0----2-------0--|-3/5-----5-----5--3--|
|-0----3-------2--|-3/5-----5-----5--3--|
|--------------3--|-1/3-3-3-3-3-3-3--1--|

Im gonna see you when It comes to glory
|------3-------3--|--------|             
|-3----3-------3--|-pick---|           
|-2----0-------0--|-scr*pe-|               
|-0----2-------0--|--------|
|-0----3-------2--|--------|
|--------------3--|--------|


And I'll See You, I'll See You On The Other Side
|------3-------3--|-----3------------|
|-3----3-------3--|---3----3-3-------|
|-2----0-------0--|------------0-0---|
|-0----2-------0--|------------------|
|-0----3-------2--|------------------|
|--------------3--|------------------|


Yes ill see you, see you on the other side
|------3-------3--|             
|-3----3-------3--|           
|-2----0-------0--|               
|-0----2-------0--|
|-0----3-------2--|
|--------------3--|  


DRUMS- PAUSE THEN INTO SOLO

SOLO
|-------------------------|--------------------------------------|
|-------------------------|--------------------------------------|
|-------------------------|-------12--------------------------12-|
|----------------12-12----|-12h14--------------12-----12h14------|
|-------10-12/14-------14-|-------------12h14-----14-------------|
|-10h12-------------------|--------------------------------------|

|-------15-------------|------------------------------|
|-------15-------------|------------------------------|
|-------14b---14---p12-|-14~~--14--bp12~~--------12-x-|
|----------------------|-------------------12-14------|
|----------------------|------------------------------|
|----------------------|------------------------------|

|---------------------------|---------------------------------|
|-15b---15b-----------------|---------------------------------|
|---------------14^-^p12----|-14b14b14b14b14b14b14b14P12------|
|------------------------14-|------------------------------14-|
|---------------------------|---------------------------------|
|---------------------------|---------------------------------|

|-15-12-----------------------------------------------------|
|-------15-12-----------------------------------------------|
|-------------14--------------------------------------------|
|----------------14-14p12-----------------------------------|
|-------------------------14-14p12\10----------10-----------|
|-------------------------------------12-10h12----12--------|

|----------------------------------------------17b--p15-----|
|-------------------------------------------15----------17--|
|----------------------------------12---14b-----------------|
|----------------------12----12h14----x---------------------|
|-------10-------12/14----14--------------------------------|
|-10h12----12/14--------------------------------------------|

|-17--17b--15~~--------15-|/20---19--19\17--17^^^-|
|----------------15h17----|-----------------------|
|-------------------------|-----------------------|
|-------------------------|-----------------------|
|-------------------------|-----------------------|
|-------------------------|-----------------------|

|--------15-----------------------|
|-18^-------18--------------------|
|--------------17b-17p15-0--000---|
|------------------------17-------|
|---------------------------------|
|---------------------------------|


"Never though Id feel like this"
|------------------|-------3-------|--------------------|
|-----3--------3---|---------3-----|-----3---------3----|
|-------0----0---0-|-----------0---|-------0-----0---0--|
|---2-----2--------|-----0-------0-|---2-----2----------|
|-3--------3-------|---2-----------|-3---------3--------|-------
|------------------|-3-------------|--------------------|       |
                                                                 x2
|-----------------|-------------------|-------3--------|        |
|-----------------|-----3---------3---|---------3------|--------
|-----0-----2-----|-------0-----0---0-|-----------0----|
|---0-----0---0---|---2-----2---------|-----0-------0--|
|---------------0-|-3---------3-------|---2------------|
|-3-----2---------|-------------------|-3--------------|


  Carved In stone        Carved in stone
|----------------------|------------------------|
|----------------------|------------------------|
|-7---7-5--------------|-7---7-5----------------|
|-7---7-5-----4--5-----|-7---7-5-----4--5-------|  x2
|-5---5-3-3-3-3--3-x-x-|-5---5-3-3-3-3--3-x-x---|
|----------------------|------------------------|


PAUSE FOR DRUMS


           Hold me, Hold me tight im falling...
|-0-------|-------------------------|-------------------------|
|---3-----|-------------------------|-------------------------|
|-----0---|-------------------0-----|-------------------0-----|
|-------4-|---0---2-----4-------4---|---0---2-----4-------4---|
|---------|-----2---2-----2-------2-|-----2---2-----2-------2-|--------            
|---------|-3---------3-----3-------|-3---------3-----3-------|        |             
                                                                        x2
|-------------------------|---------------------------|                |      
|-------------------------|---------------------------|                |    
|-------------------0-----|-------------------0-------|----------------        
|---0---2-----4-----------|---0---2-----4-------0-----|
|-----2---2-----2-----0-2-|-3---3---3-3---3-3-----0---|
|-0---------0-----0-------|---------------------------|


I Was Down, But Now I'm Flying
|------3-------3--|-----3------------|
|-3----3-------3--|---3----3-3-------|
|-2----0-------0--|------------0-0---|
|-0----2-------0--|------------------|
|-0----3-------2--|------------------|
|--------------3--|------------------|               
                                                      
 Straight Across The Great Divide                                                 
|------3-------3--|---------------------|             
|-3----3-------3--|---------------------|            
|-2----0-------0--|---------------------|               
|-0----2-------0--|-3/5-----5-----5--3--|
|-0----3-------2--|-3/5-----5-----5--3--|
|--------------3--|-1/3-3-3-3-3-3-3--1--|

I Know You're Crying, But I'll Stop You Crying
|------3-------3--|--------|             
|-3----3-------3--|-pick---|           
|-2----0-------0--|-scr*pe-|               
|-0----2-------0--|--------|
|-0----3-------2--|--------|
|--------------3--|--------|


When I See You I See You On The Other Side
|------3-------3--|-----3------------|
|-3----3-------3--|---3----3-3-------|
|-2----0-------0--|------------0-0---|
|-0----2-------0--|------------------|
|-0----3-------2--|------------------|
|--------------3--|------------------|


Yes, I'll See You, See You On The Other Side
|------3-------3--|---------------|             
|-3----3-------3--|---------------|          
|-2----0-------0--|---------------|
|-0----2-------0--|---pick scr*pe-|
|-0----3-------2--|---------------|
|--------------3--|---------------|

I'm Gonna See You, See You On The Other Side
|------3-------3--|-----3------------|
|-3----3-------3--|---3----3-3-------|
|-2----0-------0--|------------0-0---|
|-0----2-------0--|------------------|
|-0----3-------2--|------------------|
|--------------3--|------------------|

God Knows I'll See You, See You On The Other Side, Yeah
|------3-------3--|             
|-3----3-------3--|           
|-2----0-------0--|               
|-0----2-------0--|       PAUSE FOR DRUMS
|-0----3-------2--|
|--------------3--|




|-0-------|-------------------------|-------------------------|
|---3-----|-------------------------|-------------------------|
|-----0---|-------------------0-----|-------------------0-----|
|-------4-|---0---2-----4-------4---|---0---2-----4-------4---|
|---------|-----2---2-----2-------2-|-----2---2-----2-------2-|--------            
|---------|-3---------3-----3-------|-3---------3-----3-------|        |             
                                                                       x7
|-------------------------|---------------------------|                |      
|-------------------------|---------------------------|                |    
|-------------------0-----|-------------------0-------|----------------        
|---0---2-----4-----------|---0---2-----4-------0-----|
|-----2---2-----2-----0-2-|-3---3---3-3---3-3-----0---|
|-0---------0-----0-------|---------------------------|
            
Submit corrections

comments powered by Disqus
↑ Back to top | Ozzy Osbourne Tabs for See You On The Other Side. Lyrics for acoustic guitar and electric guitar. Tablatures and chords are parodies/interpretations of the original songs. You may use it for private study, scholarship, research or language learning purposes only