» » »

Revelation Bass tabs (ver.1)

Artists:  A B C D E F G H I J K L M N O P Q R S T U V W X Y Z # 

Revelation Bass tabs (ver.1)

Ozzy Osbourne
Rating:
0/5 (0 votes)

Tabs too difficult? Try these video lessons and learn fast.
                === Crankster's Ozzy Page


Revelation (Mother Earth)
Ozzy Osbourne- Blizzard of Ozz
 
 Rest for first two verses

    "Father...of all creation.........I think were all going wrong.."
 G-------------------------------------------------------------------------------
 D-------------------------------------------------------------------------------
 A---/11----------------11p10-11-------11\-----------1---------------1p0-1-------
 E-------------------------------------------------------------------------------

 Repeat for all verses

 Bridge
 G-----------------------------------------------
 D-----------------------------------------------
 A--2--3--0----2--3--0----3--2-------------------
 E------------------------------3--2--0----------

 repeat Verse
 repeat Bridge


 Bridge 2        x 3
 G-----------------------------------------
 D----------------------4\---2---4-2---5\--
 A-----7\----------------------4-----4-----
 E--0------0--6--0--2----------------------

 repeat Bridge

 Interlude x 4
 G-------|--------------------------------------------------------
 D---R---|--------------------------------------------------------
 A-------|--2\-7----7-6----6-5---5-------4----4-3----3-2---2------
 E-------|-------------------------3----3--------------------0----

 repeat Bridge 2
 repeat Bridge 1

 Pre-Solo x 2
 G---------------------------------
 D------R-------R------R-----------
 A----------1--------------1-------
 E--0--------------0-----------2\--

 Solo
 G----------------------------------------------------------------
 D----------------------------------------------------------------
 A--2--2-2-2-2-2--3-2--2-2-2-2-2--3-2--2-2-2-2-2--3-2--2-2-2-2-2--
 E----------------------------------------------------------------

         x 2
 G---------------------------------------------------------------------
 D---------------------------------------------------------------------
 A----------------------------------------2--2-2-2-2-2-3--2-2-2-2-2-2--
 E--0--0-0-0-0-0--12\--0--0-0-0-0-0--12\-------------------------------

 G------------------------------------
 D------------------------------------
 A--3-3-3-3-3-3-3-3-2-2-2-2-2-2-2-2---
 E---3-3-3-3-3-3-3-3-2-2-2-2-2-2-2-2--

 G---------------------------------------------------------------------
 D---------------------------------------------------------------------
 A--------------------------------------------------------2--2--2--2---
 E--0-0-0-0-0-0--12\--0-0-0-0-0-0--12\--0-0-0-0-0-0--12\---------------

                 x 2
 G--------------------------------------------------
 D--------------------------------------------------
 A--------------------------------------------------
 E--0---0-2-3--2---2-3-5--3---3/5-5/7--7--7--7-7-7--

 G----------------------------------------------------------------------
 D----------------------------------------------------------------------
 A----------------------------------------------------------------------
 E--0---0-2-3--2---2-3-5--3---3/5-5/7-7/8-8/9-9/10-10/11-11/12-\--0-----
            
Tabs too difficult? Try these video lessons and learn fast.




comments powered by Disqus
↑ Back to top | Tablatures and chords are parodies/interpretations of the original songs. You may use it for private study, scholarship, research or language learning purposes only