>
 >
Paranoid 1

Paranoid 1 Guitar Tabs

Ozzy Osbourne - Paranoid 1 chords, tabs, tablatures, lyrics

Guitar lessons | Add/correct | Request | Top 50 tabs Artists:  A B C D E F G H I J K L M N O P Q R S T U V W X Y Z 0-9

Paranoid 1 Guitar Tabs – Ozzy Osbourne

CD, Sheet music, Poster

Do you like Paranoid 1? Share with your friends now
Bass TabsTabsTabs v2Tabs v3
Paranoid by Black Sabbath


Intro
e|---------------------------------------|
B|---------------------------------------|
G|-7h9>--7h9>--7h9>-------7-h9------7-h9-|
D|-7h9>--7h9>--7h9>--7-h9------7-h9------|
A|-7>----7>----7>------------------------|
E|-0>------------------------------------|


Verse
e|-----------------|-------------------|-----------------|------------|
B|-----------------|-------------------|-----------------|-8------12\-|
G|-9-9-9-9-9-9-9-9-|-9-9-9-9-----------|-7-7-7-7-7-7-7-7-|-7-7-9--12\-|
D|-9-9-9-9-9-9-9-9-|-9-9-9-9-----------|-7-7-7-7-7-7-7-7-|-5-7-9--12\-|
A|-7-7-7-7-7-7-7-7-|-7-7-7-7------5-h7-|-5-5-5-5-5-5-5-5-|---5-7------|
E|-----------------|---------5-h7------|-----------------|------------|
 PM.........................|           |...............|  

Interlude
e|-----------|-----------------|-----------------|
B|-----------|-----------------|-----------------|
G|-9>--5>-7>-|-9-9-9-9-9-9-9-9-|-9-9-9-9-9-9-9-9-|
D|-9>--5>-7>-|-9-9-9-9-9-9-9-9-|-9-9-9-9-9-9-9-9-|
A|-7>--3>-5>-|-7-7-7-7-7-7-7-7-|-7-7-7-7-7-7-7-7-|
E|-----------|-----------------------------------|
             PM.................................|

Chorus
e|------|------|
B|------|------|
G|-9>---|-5>---|
D|-9>---|-5>---|
A|-7>---|-3>---|
E|------|------|

Solo
e|-------------------|-------------------|----------------------|
B|-------------------|-------------------|----------------------|
G|-12p9----9---------|-----9----9--------|----------------------|
D|------12-----------|-------12---12-9---|----------------------|
A|-------------------|-------------------|-10h12-10h12-10\7-7---|
E|-------------------|-------------------|----------------------|

e|------------------|------------------|---------------------------|
B|------------------|------------------|-----8-10-10b12r10p8-10b12-|
G|------------------|----------7h9-9---|-7-9-----------------------|
D|------------------|------7h9---------|---------------------------|
A|-10-7---7---------|-7h10-------------|---------------------------|
E|------------------|------------------|---------------------------|

e|-------------------|--------------------|-------------------|
B|-r10p8-10--8-------|--------------17-15-|-17----17----17-15-|
G|-------------9-9-9-|-7-9-9-9-9/16-------|-------------------|
D|-------------------|--------------------|-------------------|
A|-------------------|--------------------|-------------------|
E|-------------------|--------------------|-------------------|

e|-17b19-17b19-17b19r17p15-17p15----|-15p12----------------------------|
B|-------------------------------17-|-------15-15p12-------------------|
G|----------------------------------|----------------14-12-14-14p12----|
D|----------------------------------|-------------------------------14-|
A|----------------------------------|----------------------------------|
E|----------------------------------|----------------------------------|

e|--------------------------|-----------------------------------|
B|--------------------------|-----------------------------------|
G|-12----12-14b16r14-12-----|-14b16--12h14p12----12-------------|
D|----14--------------------|-----------------14----14----------|
A|--------------------------|--------------------------12h13h14-|
E|--------------------------|-----------------------------------|

e|-----------------------------|---------------------|-------------|
B|-----------------------------|---------------------|-------------|
G|-----------------------------|-----------12--------|-------------|
D|-12--------------------------|-12--12-14----14-12--|-14-12----14-|
A|-----14-12-14p12----12h13h14-|---------------------|-------------|
E|-----------------15----------|---------------------|-------------|


Lyrics: 

Finished with my woman 'cause she couldn't help me with my mind
people think I'm insane because I am frowning all the time
All day long I think of things but nothing seems to satisfy
Think I'll lose my mind if I don't find something to pacify

Can you help me occupy my brain?
Oh yeah

I need someone to show me the things in life that I can't find
I can't see the things that make true happiness, I must be blind

Make a joke and I will sigh and you will laugh and I will cry
Happiness I cannot feel and love to me us so unreal

And so as you hear these words telling you now of my state
I tell you to enjoy life I wish I could but it's too late





Comments


Popular Ozzy Osbourne tabs & chords
Bark At The Moon 1 Bass Tabs
Crazy Train Chords
Breaking All The Rules Tabs
Little Dolls Tabs
Mississippi Queen Tabs
Not Going Away Tabs
Revelation Mother Earth 1 Tabs
Rock N Roll Rebel Intro Tabs
S.A.T.O Tabs
Walk On Water Tabs


Song lyrics



↑ Back to top | Tablatures and chords are parodies/interpretations of the original songs. You may use it for private study, scholarship, research or language learning purposes only
© 2014 AZChords.com Contact us | Privacy policy | DMCA | Add/correct tabs | Request tabs | Top 50 tabs