>
 >
Old L.A. Tonight

Old L.A. Tonight Guitar Tabs

Ozzy Osbourne - Old L.A. Tonight chords, tabs, tablatures, lyrics

Guitar lessons | Add/correct | Request | Top 50 tabs Artists:  A B C D E F G H I J K L M N O P Q R S T U V W X Y Z 0-9

Old L.A. Tonight Guitar Tabs – Ozzy Osbourne

CD, Sheet music, Poster

Do you like Old L.A. Tonight? Share with your friends now
Tabs
Old LA Tonight
Ozzy - Ozzmosis

Piano arr. for guitar:
|-1---1---1-------|-0---0---0-------|-3---3-------------|-0-0---5---5-5------|
|-1---1---1---1-1-|-1---1---1-----1-|-0-0-0-----0-1---3-|-1-1------------3---|
|-2-2---2---2---0-|-0---0---0---0-0-|-0---0---2---0-0---|-2-2-----5---4--4---|
|-3---------------|-2-2---2---2---3-|-0-----0-----------|-2-2----------------|
|-3---------------|-3---------------|-2-----------------|-0---0--------------|
|-1---------------|-----------------|-3-----------------|--------------------|

Lead intro:
|-------|-----------------------|-----------------------------|
|-------|-----------------------|/10---------8h10p8-----------|
|--^7-p-|5~~---x7^------7^-^7p5-|-----------------------------|
|-------|-----x-----------------|-----------------------------|
|-------|-----------------------|-----------------------------|
|-------|-----------------------|-----------------------------|

|---------------------------|-------------------------------|
|--x-10h12-8-5h8------------|---------------------8---------|
|-x-------------5~~---5h7-5-|--------5-7~--x7^-^----7^------|
|---------------------------|-5h7~~-------x-----------------|
|---------------------------|-------------------------------|
|---------------------------|-------------------------------|

|--------------------------|--------------------------------|
|--------------------------|--------------------------------|
|-7^-^p5~~~~~~~~-----5h7-5-|--------------------------------|
|--------------------------|-5h7--7^-^p5~~~~----------------|
|--------------------------|----------------------10-\------|
|--------------------------|--------------------------------|

|------------------------------------------|
|---------------------------------~~~~~----|
|-----------------5--9\7\5/7\5---5---------|
|-----------------5--x---------------------|
|-------3-5--/7------7\5\3/5\3---3---------|go to verses w/ piano
|-3-5--------------------------------------|

Chorus: "But itll be alright..."
|------------|----------------|-------------|---------------|
|----1-------|----0-----------|----1--------|---0----1-0-1--|
|-------0----|----------0-----|--------0----|-----0--------2|
|-3--------3-|-0--------------|-3---------3-|-0-------------|
|------------|----------------|-------------|---------------|
|------------|----------------|-------------|---------------|
"Are we doin alright...in old la tonight..."
|-------------|--------------|---------|
|----1--------|----0---------|-1-------|
|--------0----|-------0------|-0---0---|
|-3---------3-|-0---------0--|-2-------|
|-------------|--------------|-3-------|
|-------------|--------------|---------|


"Those summer nights..'when i look in your eyes...'..." "Im falling to ..."
|------------------|------------------|---------------------|
|------1-----0-----|---1--------------|-----1-----0---------|
|--------0-0---0-2-|-------0-------0--|-------0-0---0-------|
|----2-------------|-----------3------|---2-----------------|
|--3---------------|------------------|-3-------------------|
|------------------|------------------|---------------------|
|                  |                  |                     |
|------------------|------------------|---------------------|
|------------------|------------------|---------------------|
|-\5---------------|------------------|-5-------------------|
|-\5-------5-----3-|------------------|-5-------5-------7---|
|-\3-------5-----3-|------------------|-3-------5-------7---|
|----------3-----1-|------------------|---------3-------5---|

|-----0-----------|-----------------|-----------------------|
|-1-0-----1-------|-----1-------0---|-1---------------------|
|-------2-------0-|---0-------0-----|-----0---------0-------|
|-------------3---|-2-------0-----3-|----------3------------|
|-----------------|-------3---------|-----------------------|
|-----------------|-----------------|-----------------------|
|                 |                 |                       |
|-----------------|-----------------|-----------------------|
|-----------------|-----------------|-----------------------|
|-----------------|-5---------------|-----------------------|
|---------3---3---|-5-------5-5---3-|-----------------------|
|---------3---3---|-3-------5-5---3-|-----------------------|
|---------1---1---|---------3-3---1-|-----------------------|

Lead interlude:
|--------------|----------------------|-----------------------|
|--------------|----------------------|---8-8h10-8~~----------|
|--------5h7-5-|-7^-7^~~~---7^-^(7)p5-|/9------------9-9\7-5/-|
|-5h7----------|----------------------|-----------------------|
|--------------|----------------------|-----------------------|
|--------------|----------------------|-----------------------|

|-------------------------------------|---------------------|
|-10h13-10~-8h10-8~-5h8-5~----trill---|---------------------|
|---------------------------797979797-|-7\5----5--7~~~--5---|
|-------------------------------------|---------------------|
|-------------------------------------|---------------------|
|-------------------------------------|---------------------|

|---------------------------|-------0------------0-----------0-|
|---------------------------|-0h1h3---3~~~-0h1h3---3~~-0h1h3---|
|/9--9^-^(9)p7~~~--7h9-5~~~-|----------------------------------|
|---------------------------|----------------------------------|
|---------------------------|----------------------------------|
|---------------------------|----------------------------------|

|-----------------------------------------------------------|
|-1---------------------------------------------------------|
|-----------------------------------------------------------|
|-----------------------------------------------------------|
|-------------------------x\\\\\\\\x\\\\\\\\----------------|
|-------------------------x\\\\\\\\x\\\\\\\\\\--------------|

SOLO:
|-15^--15^--15^-------------|-8h10-8-h10----------------------------|
|-15^--15^--15^-^-13~~~--\8-|-----------8h10-8-5h8-5---5-8----------|
|---------------------------|------------------------7^---7^-^-5--/-|
|---------------------------|---------------------------------------|
|---------------------------|---------------------------------------|
|---------------------------|---------------------------------------|

|-----------------------------------------|
|-12----12-13~~--12---12-13~~--12--12-13/-|
|-14^------------14^-----------14^--------|
|-----------------------------------------|
|-----------------------------------------|
|-----------------------------------------|

|------------------------------------|-22^-^-^-^-20-22^-^-^-^-20-|
|-20^---~~~~~---16h22p16h22-16^-~~~^-|---------------------------|
|------------------------------------|---------------------------|
|------------------------------------|---------------------------|
|------------------------------------|---------------------------|
|------------------------------------|---------------------------|

|-22^-22^--22^--22^--22p20---20\------12-|
|-------------------------22--------13---|
|-----(1 1/2)---------------------12-----|
|-------bend-----------------------------|
|----------------------------------------|
|----------------------------------------|
    
|-15-13-12--------------12--------15-13-12--------------12---------|
|---------15-13-12-13-15--15-13-12--------15-13-12-13-15--15-13-15-|
|------------------------------------------------------------------|
|------------------------------------------------------------------|
|------------------------------------------------------------------|
|------------------------------------------------------------------|

|12-----------12----------12-----------12------151312-151312---------------------
|--15-12-13-15--15-13-12----15-12-13-15--15-12--------------151312-151312--------
|-----------------------14-----------------------------------------------141210--
|--------------------------------------------------------------------------------
|--------------------------------------------------------------------------------
|--------------------------------------------------------------------------------

--------------------|
--------------------|
141210--------------|
------141210-141210-|
--------------------|
--------------------|

*****This is the riff behind the solo*****
|-----------------------------------------------------------|
|-----------------------------------------------------------|
|-----------------------------------------------------------|
|-7-----7\3---3/10-----10------10-\-7---7-\-3----3----------|
|-7-----7\3---3/10-----10------10-\-7---7-\-3----3----------|
|-5-----5\1---1/8------8-------8--\-5---5-\-1----1----------|

|------------------------------------|----------------------|
|------------------------------------|----------------------|
|-5----------------------------------|---5----5----5--------|
|-5------5---------7-----7-\-3-----3-|---5----5----5--------|
|-3------5---------7-----7-\-3-----3-|---3----3----3--------|
|--------3---------5-----5-\-1-----1-|----------------------|

|-----------------------------|
|-----------------------------|
|-PM=======================---|
|-5--5--5--5--5--5--5--5--5---|
|-5--5--5--5--5--5--5--5--5---|
|-3--3--3--3--3--3--3--3--3---|

BRIDGE: "who could imagine such a thing..."
|-5-----5--5--5-|-4--4--4--4-|-3--3--3--3--|-2--2--2--2-----|-1--1--1--1-----|
|-5-----5--5--5-|-5--5--5--5-|-5--5--5--5--|-3--3--2--2-----|-1--1--1--1-----|
|-5-------------|-5----------|-5-----------|-4--------------|-2--------------|
|-7-------------|-7----------|-5-----------|-4--------------|-3--------------|
|-12\0----------|------------|-------------|----------------|----------------|
|---------------|------------|-------------|----------------|----------------|





Comments


Popular Ozzy Osbourne tabs & chords
Dreamer Bass Tabs
I Just Want You 1 Chords
Crazy Train 6 Tabs
Crazy Train Tribute Tabs
Denial Tabs
Dreamer 7 Tabs
Mama Im Comin Come Tabs
Road To Nowhere Tabs
Tatooed Dancer Tabs
Tonight Tabs


Song lyrics



↑ Back to top | Tablatures and chords are parodies/interpretations of the original songs. You may use it for private study, scholarship, research or language learning purposes only
© 2014 AZChords.com Contact us | Privacy policy | DMCA | Add/correct tabs | Request tabs | Top 50 tabs