>
 >
No Bone Movies

No Bone Movies Bass Tabs

Ozzy Osbourne - No Bone Movies chords, tabs, tablatures, lyrics

Guitar lessons | Add/correct | Request | Top 50 tabs Artists:  A B C D E F G H I J K L M N O P Q R S T U V W X Y Z 0-9

No Bone Movies Bass Tabs – Ozzy Osbourne

CD, Sheet music, Poster

Do you like No Bone Movies? Share with your friends now
Bass TabsTabsTabs v2
=== Crankster's Ozzy Page


No Bone Movies
Ozzy Osbourne- Blizzard of Ozz


         Intro   x 3
 G-----|--------------------------|-----------------------
 D-----|--------------------------|-----------------------
 A-----|--------------5-----------|--------7-----7-7-7-7--
 E--3--|--5--5--5--5------3--3-4--|--0-0-0----0--------0--

 G-------------------------------
 D-------------------------------
 A--7\--5--5/7--7/9->>>>>----5\--
 E-------------------------------

 Verse
     "Silverscreen.....disgrace.."  
 G--------------------------------------------------------------
 D----------------------------------------------------4---7-----
 A------------------5--5---2-0----------------------5---5---7\--
 E--5--5--0-2-3--5-------0-----2-3---5--5--5--0-5-3-------------

 Verse
 G----------------------------------------------------------
 D----------------------------------------------------------
 A------------------5--5---2-0------------------------------
 E--5--5--0-2-3--5-------0-----2-3---5--5--5--5----3---0----

 Chorus
            "No Bone Movies.."
 G--------------------------|-----------------------
 D--------------------------|-----------------------
 A--------------5-----------|--------7-----7-7-7-7--
 E--5--5--5--5------3--3-4--|--0-0-0----0--------0--

 G-------------------------------
 D-------------------------------
 A--7\--5--5/7--7/9->>>>>----5\--
 E-------------------------------

 repeat Verse
 repeat Chorus

 Solo            x 4
 G------------------------------------
 D-------------7--------------7-------
 A-----------------5--5-7-8-9---9--7--
 E--5--5-7-8-9------------------------

 G-----------------------------------------------------------
 D-----------------------------------------------------------
 A--7--7-7--7-----7-7-7-7-7-7---5--5-5-5--5-/-9->>>>>>---5\--
 E-------------0---------------------------------------------

 repeat Verse
 repeat Chorus

 End Chorus #3 fill
 G------7-------
 D--7h9---9-7\--
 A--------------
 E--------------

 Outro     x 2
 G-----------------------------|-----------------------------------
 D-----------------------------|-----------------------------------
 A--------------5--5-----------|------------------5-5-5------------
 E--5--5--5--5--------3-3-3-3--|--5-5-5-5-5-5-5-5-------3-3-3-3-4--

 Ending bass Jam
 G-------------------------------------------------------
 D-----------------5h7-7-6-5-----------------------------
 A--------------5h7---------7-6-5-5-5b(6)r5-33-----------
 E--555-555-5555------------------------------55-3-4-55--

 G---------------7b(8)r55------------------------------------------
 D-----------5--7--------7-55--------------------------7---7---7---
 A--33h55-77--7---------------77-5\3-------------------------------
 E-----------------------------------3-4-5-5-5-5-5b(6)5b(6)5b(6)5--

 G-------------------------------
 D-------------------------------
 A-------------------------------
 E--5-5-5--5-5-5-5---5---5---5\--





Comments


Popular Ozzy Osbourne tabs & chords
Nativity In Black Bass Tabs
Paranoid Bass Tabs
The Ultimate Sin Bass Tabs
Goodbye To Romance 1 Chords
Crzy Train Tabs
Flying High Again 3 Tabs
Its Gets Me Through Tabs
Mama Im Coming Home 3 Tabs
Rock N Roll Rebel Intro Tabs
Suicide Solution Live Tabs


Song lyrics



↑ Back to top | Tablatures and chords are parodies/interpretations of the original songs. You may use it for private study, scholarship, research or language learning purposes only
© 2014 AZChords.com Contact us | Privacy policy | DMCA | Add/correct tabs | Request tabs | Top 50 tabs