>
 >
No Bone Movies

No Bone Movies Guitar Tabs

Ozzy Osbourne - No Bone Movies chords, tabs, tablatures, lyrics

Guitar lessons | Add/correct | Request | Top 50 tabs Artists:  A B C D E F G H I J K L M N O P Q R S T U V W X Y Z 0-9

No Bone Movies Guitar Tabs – Ozzy Osbourne

CD, Sheet music, Poster

Do you like No Bone Movies? Share with your friends now
Bass TabsTabsTabs v2


  riff1
 |------------------------|----------------|-------------------|--------------------|
 |------------------------|-3--x-x-3-------|-------------------|-3--------3---------|
 |-------2----------------|-2--x-x-0-------|---2---------------|-2--------0---------|
 |-----2---5^4^2-4^2------|-0--x-x-0-------|-2---5^4^2-4^2-----|-0--------0---------|
 |-----0-------------3^0--|----------------|-0-------------3^0-|--------------------|
 |-3^b--------------------|--------3---3^b-|-------------------|-----0-2--3---0-3^b-|
 
 |--------------------|----------------|
 |--------------------|-3--3--3--3-----|
 |---2----------------|-2--0--2--0-----|
 |-2---5^4^2-4^b^4--2-|-0--0--0--0-----|
 |-0------------------|----------------|
 |--------------------|----------3-----|
 
---------|--------------|-------------|
---------|-3--3-3--3-3--|-------------|
---------|-2--2-0--0-2--|-------------|
-(2)-----|-0--0-0--0-0--|-------------|
-(2)-----|--------------|------0-3^4--|
-(0)-----|------3--3----|-------------|

 verse riff
 |-----------------|-------------------|----------5---------|---------------------|
 |-----------------|----7-8---7-8------|----------5---------|-----3---------------|
 |---2---2-2-------|----7-7---7-7-2-2--|----2-----2---------|---0---4~~~----------|
 |---2---4-2-------|----7-7---7-7-2-2--|----2-----2---2--4--|-5-----------2-------|
 |-0---0---0-0-7-8-|-9------------0-0--|--0----0------------|----------------3^0--|
 |-----------------|-------------------|--------------------|---------------------|
 
 |----------------------|----7----5----------|----------------|-------------||
 |--------------------6\|5---5----5----------|----------------|-------------||
 |-2-----2-----2--2---6\|5---5----5----------|----2-----2-----|-------------||
 |-2-----4-----2--2---5\|4---4----4------2---|----4-----2-----|--------2----||
 |-0--0--0--0--0--0-----|------------0---0---|-0--0--0--0--0--|--------2----||
 |----------------------|--------------------|----------------|-3-2-0--0----||
 
 play riff1and verse riff....its a very basic blues type song...just listen to it
 and you'll get hows its put together..not too difficult.
 
 solo(w/ slide@fingers)
 |-12----------------|---------------0--------|-----15-15-15-15----|-12\8---7--------
 |----13/----/12-10--|-13-13----10------------|--------------------|----------10-----
 |-------------------|------------------------|-/14----------------|--------------7--
 |-------------------|-----------------10/11--|--------------------|-----------------
 |-------------------|------------------------|--------------------|-----------------
 |-------------------|------------------------|--------------------|-----------------
 
 |--------17\--------/17--|---20~~~~~~~~~~~\-|
 |------------13--10------|------------------|
 |------------------------|------------------|
 |-10/11------------------|------------------|
 |------------------------|------------------|
 |------------------------|------------------|
 
 |----------------------17-|-20\17^15-17\15^12-15\-|
 |-13^12^10--13--10--------|-----------------------|
 |-------------------12----|-----------------------|
 |-------------------------|-----------------------|
 |-------------------------|-----------------------|
 |-------------------------|-----------------------|

 |---------------------|----------|-/17--14/20-----|-(20)\------------||
 |-12---12-------------|-9---9/---|----------------|--------13\-------||
 |--------/12\9~~~~~~~~|---9------|----------------|------------------||
 |---------------------|----------|----------------|------------------||
 |---------------------|----------|----------------|------------------||
 |---------------------|----------|----------------|------------------||
 
 outro solo
 |------17------------17------------17------------17--------20^b-20^b-20^b-20~~~~~~|
 |-20^b----20^17-20^b----20^17-20^b----20^17-20^b----20^17-------------------------|
 |---------------------------------------------------------------------------------|
 |---------------------------------------------------------------------------------|
 |---------------------------------------------------------------------------------|
 |---------------------------------------------------------------------------------|
 
 |----------------------------------17------------------------------------------||
 |----------------------------13/14-----17---------------20~~~~~~~~~~~~~~~~-----||
 |-4-2---------4-2--------------------------18~~~~~~~~~~------------------------||
 |-----4-2---------4-2----------------------------------------------------------||
 |---------4-0---------3^4-0----------------------------------------------------||
 |------------------------------------------------------------------------------||





Comments


Popular Ozzy Osbourne tabs & chords
I Dont Wanna Stop Bass Tabs
See You On The Other Side Bass Tabs
I Just Want You Chords
Almighty Dollar Tabs
Black Rain Tabs
Dreamer 7 Tabs
Fire In The Sky 1 Tabs
Gets Me Through Live Intro Tabs
Shot In The Dark Tabs
So Tired Ukulele


Song lyrics



↑ Back to top | Tablatures and chords are parodies/interpretations of the original songs. You may use it for private study, scholarship, research or language learning purposes only
© 2014 AZChords.com Contact us | Privacy policy | DMCA | Add/correct tabs | Request tabs | Top 50 tabs