» » »

Nativity In Black Tabs (ver.2)

Artists:  A B C D E F G H I J K L M N O P Q R S T U V W X Y Z # 

Nativity In Black Tabs (ver.2)

Ozzy Osbourne
Rating:
0/5 (0 votes)

Hard to play? Try these video lessons and learn fast.
                E--------------------------------------------
G--------------------------------------------
B--------------------------------------------
D--------------3-4---------------------------
A-----5-5-7-5-------7-7-5-7------------------
E--------------------------------------------
Main Riff

E        ------------------------------------------------------------------
G       ------------------------------------------------------------------
B        9---9---7---9---12---11---9---9---7---9---------------------
D        9---9---7---9---12---11---9---9---7---9---------------------
A        7---7---5---7---10----9---7---7---5---7---------------------
E        ------------------------------------------------------------------

This bit has to be played after the main riff just a small bit. Tnx to Highlander!
E------------|--12-12--|--------------|
B------------|--12-12--|--------------|
G--/14--12~~-|---------|--------------|
D------------|---------|--9p7-9p7-9p7-|
A------------|---------|--------------|
E------------|---------|--------------|




Riff 2

E       -------------------------------------------------------------------------------------
G      -------------------------------------------------------------------------------------
B      ------------------------------------------------------------------------------------- 
D      ------5---7---7---5-------------5---7---7---5-----------------5---7---7---5-----
A      --7---------------------7------7---------------------7------7---------------------7
E       -------------------------------------------------------------------------------------

Riff 3

E        ----------------------------------------------------------------------------------------------------- 
G       -----------------------------------------------------------------------------------------------------
B        -----------------------------------------------------------------------------------------------------
D        9------7------5------4------4------/9------7------5------4------4------/5------5------/4-------
A        7------5------3------2------2------/7------5------3------2------2------/3------3------/2-------
E      -------------------------------------------------------------------------------------

This is really a great song but the intro I think is played on a synthesizer so I could’nt really tab that part you know but just play it.
It’s not difficult to play so enjoy!
^Reiniertje^
            
Hard to play? Try these video lessons and learn fast. | Correct




comments powered by Disqus
↑ Back to top | Tablatures and chords are parodies/interpretations of the original songs. You may use it for private study, scholarship, research or language learning purposes only