» » »

Ozzy Osbourne, Mama Im Comin Home Tabs (ver.2)

Artists:  A B C D E F G H I J K L M N O P Q R S T U V W X Y Z # 

Mama Im Comin Home Tabs (ver.2)

Ozzy Osbourne Tabs
 Rating:
4/5 (4 votes)
Mama Im Comin Home lessons Tabs too difficult? Try these video lessons and learn fast
1
                

Gtr I (E A D G B E) - 'Untitled'

 4/4
  Gtr I

Intro riff. (also played when Ozzy starts singing)

|-12------------0-----0-----0-----0-----0-----0-----0-----0------|
|----12-----------0-----0-----0-----0-----0-----0-----0-----0----|
|-------13-11-9-----8-----6-----4-----2-----1--------------------|
|-------------------------------------------------4-----2--------|
|----------------------------------------------------------------|
|----------------------------------------------------------------|


  
|-----0-----0-----0-----0-----0-------0---0------|
|-------0-----0-----0-----0-----0-------0---0----|
|-1S2-----2-----1-----1-----2-----2S4------------|
|------------------------------------------------|
|------------------------------------------------|
|------------------------------------------------|


Riff before the solo.

|-3-0---5-----0-----3-2-0---0-2-4-0-----3-0---5-0---0-0--------|
|-----0---0-----0---------3---------0-------0-----0-----0------|
|-----------0-----1-------------------1-------------------1----|
|--------------------------------------------------------------|
|--------------------------------------------------------------|
|--------------------------------------------------------------|

SOLO:
|-------------------------------------------------------------------------------------------------|
|----------------------12S14-12-10h12-9----------------------12S14-12-10-12-9---------------------|
|------9----9-11b12-13-----------------------9----9-11b12-13-----------------------9----9-11-9-11-|
|-9h11---11-----------------------------9h11---11-----------------------------9h11---11-----------|
|-------------------------------------------------------------------------------------------------|
|-------------------------------------------------------------------------------------------------|



|-14s16--14s16-14-12-14s16-12-14-14--16-17-19b19.5-------|
|--------------------------------------------------18----|
|--------------------------------------------------------|
|--------------------------------------------------------|
|--------------------------------------------------------|
|--------------------------------------------------------|

**********************

Duration Legend
---------------
W - whole; H - half; Q - quarter; E - 8th; S - 16th; T - 32nd; X - 64th; a - acciaccatura
+ - note tied to previous; . - note dotted; .. - note double dotted
Uncapitalized letters represent notes that are staccato (1/2 duration)
Irregular groupings are notated above the duration line
Duration letters will always appear directly above the note/fret number it represents the
duration for.  Duration letters with no fret number below them represent rests.  Multi-
bar rests are notated in the form Wxn, where n is the number of bars to rest for.  Low
melody durations appear below the staff

Tablature Legend
----------------
 h   - hammer-on
 p   - pull-off
 b   - bend
 pb  - pre-bend
 r   - bend release (if no number after the r, then release immediately)
 /\  - slide into or out of (from/to "nowhere")
 s   - legato slide
 S   - shift slide
  - natural harmonic
[n]  - artificial harmonic
n(n) - tapped harmonic
 ~   - vibrato
 tr  - trill
 T   - tap
 TP  - trem. picking
 PM  - palm muting
\n/  - tremolo bar dip; n = amount to dip
 \n  - tremolo bar down
 n/  - tremolo bar up
/n\  - tremolo bar inverted dip
 =   - hold bend; also acts as connecting device for hammers/pulls
   - volume swell (louder/softer)
 x   - on rhythm slash represents muted slash
 o   - on rhythm slash represents single note slash




*************************************************************************************
*************************************************************************************
            
Submit corrections

comments powered by Disqus
↑ Back to top | Ozzy Osbourne Tabs for Mama Im Comin Home. Lyrics for acoustic guitar and electric guitar. 1 Tablatures and chords are parodies/interpretations of the original songs. You may use it for private study, scholarship, research or language learning purposes only