>
 >
Life Wont Wait

Life Wont Wait Guitar Tabs

Ozzy Osbourne - Life Wont Wait chords, tabs, tablatures, lyrics

Guitar lessons | Add/correct | Request | Top 50 tabs Artists:  A B C D E F G H I J K L M N O P Q R S T U V W X Y Z 0-9

Life Wont Wait Guitar Tabs – Ozzy Osbourne

CD, Sheet music, Poster

Do you like Life Wont Wait? Share with your friends now
Tabs

***This is based off the shorter(music video) version. The one on the Scream album 
has an extra Verse and (Pre chorus) but you can figure it out :P

Well I found this song a few weeks ago and I didn't see any tabs besides that Guitar Pro 
I don't have!) So i decided I would tab it for me and for the rest of you who love 
guitar riff so very much:)

This is kind of a quick rough one but you'll figure it out fast.
This is NO SOLO, well at least the second, crazier, part of it, Sorry.


Tuning Drop C# (I know, it sucks)

e-->eb    D#
B-->Bb    A#
G-->Gb 0R F#
D-->Db    C#
A-->Ab    B#
E-->Db    C#

h-hammar-on
p-pull-off
r-release
^-bend
#-harmonic
*-Staccato

+ =down beat
- =up beat


Main Riff - Verse and Intro (play 3 times)
|---------------------------------------------------------|
|---------------------------------------------------------|
|o--11--11-11-11-11-11-11--9-9--9---9-9-------------------|
|o----------------------------------------|<--------------| you could also play this
|---9---9--9--9--9--9--9---7-7--7---7-7-------------------|  string open if you wanted to
|---0---0--0--0--0--0--0---0-0--0---0-0-------------------|      EXMAPLE:
    + e -  a  +  e  -  a + -  a + e - a          |--------|
                                                 |--------|
----------------------------------------|        |--11----| Sounds just fine
----------------------------------------|        |--0-----| or maybe even
--12---12-12-12-12-12-12---6-6--6---6-6-|        |--9-----| better
----------------------------------------|        |--0-----|
--10---10-10-10-10-10-10---4-4--4---4-4-------------------|
--0----0--0--0--0--0--0----0-0--0---0-0-------------------|
  +  e -  a  +  e  -  a +  -  a + e - a


-------------------------------------------------x-x---|
-------------------------------------------------x-x---|
--4---4-4-4-4---2-2-2---2-2--4---4-4-4-4-6--6-6--x-x--o|
-------------------------------------------------x-x--o|
--2---2-2-2-2---0-0-0---0-0--2---2-2-2-2-4--4-4--x-x---|
-------------------------------------------------x-x---|


**This part is tricky. It's missing the "AND" of 4
So count it 1&2&3&41&2&3&41&2&3&4. Basically skip the "AND" of 4.

Tts called "7/8" time. Do this for both pre chorus'

Pre Chorus 1^^^^

    "Stand up"             "Aim true"
    "Keep heart"           "The Future looks to You"
--------------------------------------------|
--------------------------------------------|
--------------------------------------------|
--5---5-5---5-5--0--0-5---5-5--5--5-5--7--7-| x2
--5---5-5---5-5--0--0-5---5-5--5--5-5--7--7-|
--5---5-5---5-5--0--0-5---5-5--5--5-5--7--7-|
  +     +     +  &  + +     +       +  &  +


Chorus, back to 4/4

                   "Every second you throw away"
----------------------------------------|
----------------------------------------|
----------------------------------------|
-9-9-9\11^12r9---------9-9--------------|
-9-9-------------------9-9------9-7-5---|
-9-9-------------------9-9------------9-|


               "Every minute of every day,"
----------------------------------------|
----------------------------------------|
----------------------------------------|
-7-7-7\9^11r7----------7-7--------------|
-7-7-------------------7-7------7-5-4---|
-7-7-------------------7-7------------7-|

                "Don't get caught in a memory"
----------------------------------------|              -------|
----------------------------------------|              -------|
----------------------------------------|              -------|
-5-5-5\7^9r5-----------5-5-----5-5-5-5--|              -7/2---|
-5-5-------------------5-5-----5-5-5-5--| OR you could -7/2---|
-5-5-------------------5-5-----5-5-5-5--| ^^^^^^^^^^^^ -7/2---|
                               ^^^^^^^muffled/noisy. OR

"'Cause life won't wait for you"
       Like won't wait for you my friend"
------------------------------|
------------------------------|
------------------------------|
--2~~~~~--4-5---5---5---5---5-|
--2~~~~~--4-5---5---5---5---5-|
--2~~~~~--4-5---5---5---5---5-|

Play Main Riff x3  ****WITH what is said below

----------------------------------------------------------------------------
This is the 2nd guitar with slight distortion/feedback after he says:

"It all feels Very Strange"
--------------------------------------|
--------------------------------------|
--------------------------7--6--------|
------------------------------9----7--|
--------------------------------------|
--------------------------------------|

There's more quiet stuff but I don't care fot that right now. ;) I'll tab it if requested
----------------------------------------------------------------------------


PRE CHORUS 2 "7/8" time again

      "Stay Strong"       "Stay True"
      "Be Brave"          "It all comes down to you"
------------------------------------------|
------------------------------------------|
------------------------------------------|
--5---5-5---5-5--0--0-5---5-5---5-5--7--7-| x2
--5---5-5---5-5--0--0-5---5-5---5-5--7--7-|
--5---5-5---5-5--0--0-5---5-5---5-5--7--7-|
  +     +     +  &  + +     +     +  &  +


Chorus, back to 4/4

   "Every day that you wait, you're falling faster"
---------------------------------|
--------1212---------------------|
--------1111---------------------|
-9-9----9-9-----9-9--------------|
-9-9----9-9-----9-9------9-7-5---|
-9-9----9-9-----9-9------------9-|


"No slight of hand,
        No twist of fate,
                No ever after"
----------------------------------|
---------1010---------------------|
---------9-9----------------------|
-7-7-----7-7-----7-7--------------|
-7-7-----7-7-----7-7------7-5-4---|
-7-7-----7-7-----7-7------------7-|


"When it's gone, it's gone,
         I'll fight 'til the bitter end"
----------------------------------|              -------|
---------8-8-------------8-8------|              -------|
---------7-7-------------7-7------|              -------|
-5-5-----5-5-----5-5-----5-5-xxxx-|              -7/2---|
-5-5-----5-5-----5-5-----5-5-xxxx-| OR you could -7/2---|
-5-5-----5-5-----5-5-----5-5-xxxx-| ^^^^^^^^^^^^ -7/2---|
                               ^^^^^^^muffled/noisy. OR

"Life won't wait for you
         No, Life won't wait for you my friend"
------------------------------|
------------------------------|
------------------------------|
--2~~~~~--4-5---5---5---5---5-|
--2~~~~~--4-5---5---5---5---5-|
--2~~~~~--4-5---5---5---5---5-|


SOLO(rythmn only, sorry)

-------------------------------------------------------------|
-------------------------------------------------------------|
-------------------------------------------------------------|
-----------------------------------------------0--3----------|
--3h5-5h6-3h5-5h6----5h6p5-3-------------------0--3----------|
-------------------0----------3h5-5h6-3h5-5h6--0--3----------|


---------------------------------------------|
---------------------------------------------|
-----------------------------------------#5^-|<-- Not too sure about that
------------------------0--3-3--3-3--5-5-----|      Harmonic(plus whammy)
-0h1-0h3-0h1-0h3--0-1-3-*--1-1--1-1--3-3-----|
------------------*-*-*----------------------| Play all of that 2 times


Bridge/Interlude?
-------------------------------------|
-------------x-x---------------------|
-------------x-x-----xx--------------|
-0-0---7-8-8-x-x---3-xx-5-0---0------|
-0-0---7-8-8-x-x---3-xx-5-0---0------|
-0-0---7-8-8-------3----5-0---0------|
                          *   *

-----------------------------|
-------------x-x-------------|
-------------x-x-----xx------|
-0-0---7-8-8-x-x---3-xx-5-0--|
-0-0---7-8-8-x-x---3-xx-5-0--|
-0-0---7-8-8-------3----5-0--|
                          *


-------------------------------------|
-----6--6---5--5---------------------|<-- the other guitar does something
----7--7---7--7----------------------|  like this on the B and G strings
--0~~--------------0hold-------------|
--0~~--------------0hold-------------|
--0~~-----1^~~~~---0hold-------------|


After that play the Verse/intro riff until the end

The Last thing the "distortion" guitar does at the end is this

--14~~--14h15-14-----------------------|
-----------------15--------------------|
--------------------14-----------------|
-----------------------14^15^14--12~~--|
---------------------------------------|
---------------------------------------|

Just a little tidbit of the bass part I like on the pre(2nd)verse and at the end

It's hard to figure out so ill start halfway through the riff at the cool part and 
you'll catch on
F#-----------------------------------------------------------|
C#-----------------------------------------------------------|
B#---------------------------0h2-0--0--------------2h4-2--2--|
C#--5--3--2--0---0-2p0-4p0-0-----------0-2p0-4p0-0-----------|


Hope you liked the tab and good luck and leave comments/suggestions!

LYRICS

I watch it all change,
Take the news of the day
And throw it away

Time will kill all the pain,
Fate will cure the decay of all this blind ambition,
The greed brings us together

Stand up,
Aim true,
Keep heart,
The future looks to you

Every second you throw away,
Every minute of every day,
Don't get caught in a memory,
'Cause life won't wait for you,
No Life Won't wait for you my friend

I'm watching the change,
Who will carry the flame?
It all feels very strange

Dreams that men can be good,
Faith to live as we should and know we're all connected,
We give ourselves the power

Stay strong,
Stay true,
Be brave,
It all comes down to you

Every day that you wait, you're falling faster,
No slight of hand,
No twist of fate,
No ever after

When it's gone, it's gone,
I'll fight 'til the bitter end,
Life won't wait for you,
No, life won't wait for you, my friend

Life won't wait for you, my friend
Life won't wait for you, my friend
Life won't wait for you, my friend
Life won't wait for you, my friend





Comments


Popular Ozzy Osbourne tabs & chords
Civilize The Universe Bass Tabs
My Jekyll Doesnt Hide Bass Tabs
Crazy Train Drum Tabs
Believer 2 Tabs
Crazy Train 9 Tabs
Dee 3 Tabs
Dee 4 Tabs
Iron Man Tribute 1 Tabs
Symptom Of The Universe Tabs
That I Never Had Tabs


Song lyrics



↑ Back to top | Tablatures and chords are parodies/interpretations of the original songs. You may use it for private study, scholarship, research or language learning purposes only
© 2014 AZChords.com Contact us | Privacy policy | DMCA | Add/correct tabs | Request tabs | Top 50 tabs