» » »

Let Me Hear You Scream Tabs (ver.2)

Artists:  A B C D E F G H I J K L M N O P Q R S T U V W X Y Z # 

Let Me Hear You Scream Tabs (ver.2)

Ozzy Osbourne
Rating:
0/5 (0 votes)

Hard to play? Try these video lessons and learn fast.
                ---------------------------------------------OZZY OSBOURNE----------------------
Drop D Tuning
Intro-0:00-0:07
e|----------------------------------------|    -----|
B|----------------------------------------|    -----|
G|----------------------------------------| X2------|
D|----------------------------------------|    -----|
A|--/18\------3---3---0---0---6---6---0---|    --3--|
E|--/18\------3---3---0---0---6---6---0---|    --3--|
                 ^ F5
 This intro is punctuated with short silences. These are very important because the
rhythmic "Bounce" is lost without them. The second time around use downstrokes on the
F5 (Noted) Powerchords, Mute the strings momentarily and then use an upstroke for the 
string. Or just play it the way it feels right.

Pre-Verse Lead-0:08-0:17-----------------------------------------------------|
e|--------------------------------------------10h1210------------------------|
B|-------------13~------12~------11~------10~---------13h10------------------|
G|----------------------------------------------------------12h10------------|
D|----------------------------------------------------------------12h10-12/|-|
A|---------------------------------------------------------------------------|
E|--15\----------------------------------------------------------------------|

Play the bends smoothly, With a barely detectable vibrato. The final lick is fast but
where the pull-offs are it's easier to play pull-offs than to pick every note

Pre-Verse Rhythm-0:08-0:17

e|--------------------------------------------|
B|--------------------------------------------|
G|--------------------------------------------| X4
D|--------------------------------------------|
A|--------------------------------------------|
E|--0-0-3h5-0-3h5-0-3h5-0--0--0--0--0--0--0---|

Aim to keep both hands synchronised and use alternate picking throughout. Gradually
tempo, Keeping your picking hand as relaxed as possible.

Verse-Both Guitars:0:17-0:46

e|--------------------------------------------|
B|--------------------------------------------|
G|--------------------------------------------| X12
D|--------------------------------------------|
A|--------------------------------------------|
E|--0-0-3h5-0-3h5-0-3h5-0--0--0--0--0--0--0---|

Verse Lead Fill:0:30-0:31 Then Again At 0:45-0:46
e|10h1210-----------------------|
B|--------13h10-----------------|
G|--------------12h10-----------|
D|--------------------12h10-12~/|
A|------------------------------|
E|------------------------------|
 Bridge-0:46-0:51

e|--------------------------------------------|
B|-------------------------------12b----------|
G|--------------------------------------------|
D|-3---3---3---3--------5---------------------|
A|-1---1---1---1--------3---------------------|
E|--------------------------------------------| Repeat Lead part 2 after the

bridge 0:51-0:52
e|10h1210-----------------------|
B|--------13h10-----------------|
G|--------------12h10-----------|
D|--------------------12h10-12~/|
A|------------------------------|
E|------------------------------|

Chorus-0:53-1:07

e|--------------------------------------------|
B|--------------------------------------------|
G|--------------------------------------------|
D|--------------------------------------------|
A|------0--------------------------------2----|
E|-12\--0--------------------------------2----|


e|--------------------------------------------|
B|--------------------------------------------|
G|--------------------------------------------|
D|---------------5p3-0-5p3-0-5p3-0-5p3-0-5p3-0|
A|-3------------------------------------------|
E|-3------------------------------------------|


e|--------------------------------------------|
B|--------------------------------------------|
G|--------------------------------------------|
D|--------------------------------------------|
A|---0----------------3--------------6--------|
E|---0----------------3--------------6-----15\|

Chorus Tail 1:07-1:15

e|---------------------------------|
B|---------------------------------|
G|---------------------------------|
D|---------------------------------|
A|---------------------------------|
E|-5p3-0-5p3-0-5p3-0-5p3-0-3h5p3-0-|

e|---------------------------------|
B|---------------------------------|
G|---------------------------------|
D|---------------------------------|
A|---------------------------------|
E|-5p3-0-5p3-0-5p3-0-5p3-0-5p3-0-+6|

Appearing after each chorus and at the end of the track, this tag is essentially a
version of the pre-verse/verse riff. Start by practising it on its own. As you start to get
hang of it, Switch between the verse riff and this one as a tricky co-ordination exercise.
SOLO
e|--------------------------------------------|
B|--------------------------------------------|
G|-----------------3~~~~~~~~~~~~~~~~~~~-------| - For this note Gently slide
D|--------------------------------------------| picking hand along strings
A|-17\----------------------------------------| towards neck to create
E|-17\----------------------------------------| harmonics.


e|-----20-----15-----17-----13-----15--------|
B|--/17--17\13--13/15--15\10--10/13--13/8----|
G|-------------------------------------------|
D|-------------------------------------------|
A|-------------------------------------------|
E|-------------------------------------------|

e|10----13----8---10---7-8-7-5------------| I have left out the pull offs
B|--8/10--10\6-6/8--8\6-------8-6-5-6-8-65| and hammerons. If you would
G|----------------------------------------| like to know e-mail me. Address
D|----------------------------------------| at the top
A|----------------------------------------|
E|----------------------------------------|

e|----------------------------------------|
B|------------5-6-8-6-5-------------------|
G|-7-5\4--5-7-----------7-5-4\2-----------|
D|------------------------------5-3-2-3-5-|
A|----------------------------------------|
E|----------------------------------------|

e|----------------------------------------|
B|----------------------------------------|
G|----------------------------------------|
D|-3-2------------------------------------|
A|------5-3-2-3-2~------------------------|
E|------------------------------------12\-|

e|----------------------------------------|
B|-12b------------------------------------|
G|-12b--10--12--10------------------------|
D|-----------------12--10-----------------| X2 ---------
A|----------------------------------------|
E|----------------------------------------|

e|-------10-------------------------------|
B|----------13-10-------------------------|
G|-12b-------------12--10-----------------|
D|-----------------------------------15-17|
A|--------------------------15-17-19------|
E|----------------------------------------|

e|----------------------------------------|
B|----------------------------------------|
G|-------------------------------17-18-20-|
D|-------------15-17-19-15-17-19----------|
A|-19-15-17-19----------------------------|
E|----------------------------------------|

e|----------17-18-20b---------------------|
B|-17-18-20-------------------------------|
G|----------------------------------------|
D|----------------------------------------|
A|----------------------------------------|
E|----------------------------------------|


************************************
| / slide up
| \ slide down
| h hammer-on
| p pull-off
| ~ vibrato
| + harmonic
| x Mute note
| b Bend
| pb Pre-bend
| br Bend release
| pbr Pre-bend release
| brb Bend release bend
************************************
            
Hard to play? Try these video lessons and learn fast. | Correct




comments powered by Disqus
↑ Back to top | Tablatures and chords are parodies/interpretations of the original songs. You may use it for private study, scholarship, research or language learning purposes only