» » »

Ozzy Osbourne, Iron Man Tribute Tabs (ver.1)

Artists:  A B C D E F G H I J K L M N O P Q R S T U V W X Y Z # 

Iron Man Tribute Tabs (ver.1)

Ozzy Osbourne Tabs
 Rating:
4/5 (4 votes)
Iron Man Tribute lessons Tabs too difficult? Try these video lessons and learn fast
                This is a really great song if played right. 
This is my third tab but I dont think the other 
two made it so if this tab makes it please give 
it a good rating or a good comment.


intro/ main riff
----7-7-9-9-12-11-12-11-12-11-7-7-9-9-----7-7/9-9--12\11-12\11-12\11-7-7/9-9-
-9--5-5-7-7-10--9-10--9-10--9-5-5-7-7--9--5-5/7-7--10\-9-10\-9-10\-9-5-5/7-7-
-7-------------------------------------7-------------------------------------



verse:
-------------------------------------------------------
-------------------------------------------------------
-------------------------------------------------------
------------------------------------------------------- 
-----5--5/7----7-----10p9--10p9--10p9p10--5--5/7-7/----	
-7-----------------------------------------------------

play verse twice while singing

Has he lost his mind

Can he see or is he blind

Can he walk at all,

or if he moves will he fall


intro/ main riff
-----------------------------------------
-----------------------------------------
-----------------------------------------
-----------------------------------------
----7-7-9-9-12-11-12-11-12-11-7-7-9-9----
-9--5-5-7-7-10--9-10--9-10--9-5-5-7-7----
-7---------------------------------------

verse:
-------------------------------------------------------
-------------------------------------------------------
-------------------------------------------------------
------------------------------------------------------- 
-----5--5/7----7-----10p9--10p9--10p9p10--5--5/7-7/----	
-7-----------------------------------------------------

play verse twice again while singing

Is he alive or dead

has he thoughts within his head

We'll just pass him there

Why should we even care


solo
-----------7-7------------------------------------7-7--------------------------
---9-9-9---5-5----9--8-7-7-7-0-6-6-7-7-8-8--9-9-9-5-5--9--8-7-7-7-0-6-6-7-7-8-8
---7-7-7----------7--6-5-5-5-0-4-4-5-5-6-6--7-7-7------7--6-5-5-5-0-4-4-5-5-6-6

-----------------------------------------
-----------------------------------------
-----------------------------------------
--------7-7------------------------------
-9-9-9--5-5-----9--8-7-7-7-0-6-6-7-7-8-8-
-7-7-7----------7--6-5-5-5-0-4-4-5-5-6-6-


intro/ main riff
----7-7-9-9-12-11-12-11-12-11-7-7-9-9-----7-7/9-9--12\11-12\11-12\11-7-7/9-9-
-9--5-5-7-7-10--9-10--9-10--9-5-5-7-7--9--5-5/7-7--10\-9-10\-9-10\-9-5-5/7-7-
-7-------------------------------------7-------------------------------------


verse:
-------------------------------------------------------
-------------------------------------------------------
-------------------------------------------------------
------------------------------------------------------- 
-----5--5/7----7-----10p9--10p9--10p9p10--5--5/7-7/----	
-7-----------------------------------------------------

play verse twice one more while singing

He was turned to steel

in the great magneticfield

when he travelled time

for the future of mankind


Thats all I know right now but i'll 
try and add more to it soon. Once 
again give this tab a good rating
            
Submit corrections

comments powered by Disqus
↑ Back to top | Ozzy Osbourne Tabs for Iron Man Tribute. Lyrics for acoustic guitar and electric guitar. Tablatures and chords are parodies/interpretations of the original songs. You may use it for private study, scholarship, research or language learning purposes only