» » »

Ozzy Osbourne, I Dont Wanna Stop Tabs (ver.4)

Artists:  A B C D E F G H I J K L M N O P Q R S T U V W X Y Z # 

I Dont Wanna Stop Tabs (ver.4)

Ozzy Osbourne Tabs
Rating:
0/5 (0 votes)
I Dont Wanna Stop lessons Tabs too difficult? Try these video lessons and learn fast
                (Intro)
-----------------------------------------------------------------------------
                I don't wanna stop - Ozzy Osbourne
-----------------------------------------------------------------------------

Tuning: Drop D (D,A,D,G,B,E)

e|---------------------------------------------------------------------------|
B|---------------------------------------------------------------------------|
G|---------------------------------------------------------------------------|
D|-5-3-----------8-5--------5-3-----------8-5--------------------------------|
A|-3-1-----------6-3--------3-1-----------6-3--------------------------------|
E|---------------------------------------------------------------------------|

e|---------------------------------------------------------------------------|
B|---------------------------------------------------------------------------|
G|---------------------------------------------------------------------------|
D|---------------------------------------------------------------------------|
A|-5-p-3-0-3-5-3-0-x-x-3-0-3-5-3-0-x-x-3-0-3-5-3-0-x-x-3-0-3-5-3-0-----------|
E|-5-p-3-0-3-5-3-0-x-x-3-0-3-5-3-0-x-x-3-0-3-5-3-0-x-x-3-0-3-5-3-0--3*~~-----|

e|---------------------------------------------------------------------------|
B|---------------------------------------------------------------------------|
G|---------------------------------------------------------------------------|
D|---------------------------------------------------------------------------|
A|-5-p-3-0-3-5-3-0-x-x-3-0-3-5-3-0-x-x-3-0-3-5-3-0-x-x-3-0-3-5-3-0-----------|
E|-5-p-3-0-3-5-3-0-x-x-3-0-3-5-3-0-x-x-3-0-3-5-3-0-x-x-3-0-3-5-3-0--3*~~-----|

e|---------------------------------------------------------------------------|
B|---------------------------------------------------------------------------|
G|---------------------------------------------------------------------------|
D|-----------------7-7-------------------------------------------------------|
A|-0--0-0-0--0-0-0-5-5--0--0-0-0--/9-----------------------------------------|
E|-0--0-0-0--0-0-0------0--0-0-0-----9-8-7-5-3-1-----------------------------|

| /  slide up
| \  slide down
| h  hammer-on
| p  pull-off
| ~  vibrato
| +  harmonic
| x  Mute note
| *  Pinch harmonic
=============================================================================
            
Submit corrections

comments powered by Disqus
↑ Back to top | Ozzy Osbourne Tabs for I Dont Wanna Stop. Lyrics for acoustic guitar and electric guitar. Tablatures and chords are parodies/interpretations of the original songs. You may use it for private study, scholarship, research or language learning purposes only