>
 >
I Dont Wanna Stop 1

I Dont Wanna Stop 1 Guitar Tabs

Ozzy Osbourne - I Dont Wanna Stop 1 chords, tabs, tablatures, lyrics

Guitar lessons | Add/correct | Request | Top 50 tabs Artists:  A B C D E F G H I J K L M N O P Q R S T U V W X Y Z 0-9

I Dont Wanna Stop 1 Guitar Tabs – Ozzy Osbourne

CD, Sheet music, Poster

Do you like I Dont Wanna Stop 1? Share with your friends now
Bass TabsTabsTabs v2Tabs v3
Ozzy Osboure - I Don't Wanna Stop

I know theres four guitars but i'm olny going to do the main stuff, it's not just one of 
guitars it's a bit of all four but if u listen close it is right, execpt for maybe the solo.:)

Also, it's on advance because of the Solo

Tuning - Drop C (CGCFAD)

|------------------------------------------------|
|------------------------------------------------|
|--7--------5---------(5)--(5)-------------------|
|--7--------5---------(5)--(5)-------------------|
|--5--------3---------(3)--(3)-------------------|
|------------------------------------------------|

|-------------------------------------------------|
|-------------------------------------------------|
|-/10--------7---------(7)--(7)-------------------|
|-/10--------7---------(7)--(7)-------------------|
|--/8--------5---------(5)--(5)-------------------|
|-------------------------------------------------|

|--------------------------------------|
|--------------------------------------|
|--------------------------------------|
|--------------------------------------|
|-----------------------------------3--|
|--5p3p0-3-5-3-0-0-0--5p3p0-3-5-3-0----|

|--------------------------------------|
|--------------------------------------|
|--------------------------------------|
|--------------------------------------|
|----------------------------------3P--|
|-5p3p0-3-5-3-0-0-0--5p3p0-3-5-3-0-----|

|--------------------------------------|
|--------------------------------------|
|--------------------------------------|
|--------------------------------------|
|-----------------------------------3--|
|--5p3p0-3-5-3-0-0-0--5p3p0-3-5-3-0----|

|---------------------------------------|
|---------------------------------------|
|---------------------------------------|
|---------------------------------------|
|----------------------------------3P---|
|-5p3p0-3-5-3-0-0-0--5p3p0-3-5-3-0------|

Pre-Verse
|-----------------------------------------------------------------|
|-----------------------------------------------------------------|
|-----------------------------------------------------------------|
|0----0----0------0----5-5--------3----3----3-----/6p5p3----------|
|0----0----0------0----3-3--------0----0----0------------5-3------|
|0----0----0------0---------------0----0----0---------------6p5p3-|
   Verse
|-----------------------------------------------------------------|
|-----------------------------------------------------------------|
|-----------------------------------------------------------------|
|-0----0----0------0----5-5--------3----3----3----/6p5p3----------|
|-0----0----0------0----3-3--------0----0----0-----------5-3------|
|-0----0----0------0---------------0----0----0--------------6p5p3-|

|-------------------------------------------------------------|
|-------------------------------------------------------------|
|-------------------------------------------------------------|
|-0-----0----0----------0----5-5------------/6p5p3------------|
|-0-----0----0----------0----3-3-------------------5-3--------|
|-0-----0----0----------0------------------------------6p5p3--|

|---------------------------------------------|
|---------------------------------------------|
|-7-----5------(5)--(5)-----------------------|
|-7-----5------(5)--(5)------/6p5p3-----------|
|-5-----3------(3)--(3)-------------5-3-------|
|---------------------------------------6p5p3-|

|---------------------------------------------|
|---------------------------------------------|
|-10-----7------(7)--(7)----------------------|
|-10-----7------(7)--(7)-----/6p5p3-----------|
|--8-----5------(5)--(5)------------5-3-------|
|---------------------------------------6p5p3-|

|--------------------------------------|
|--------------------------------------|
|--------------------------------------|
|--------------------------------------|
|-----------------------------------3--|
|--5p3p0-3-5-3-0-0-0--5p3p0-3-5-3-0----|

|---------------------------------------|
|---------------------------------------|
|---------------------------------------|
|---------------------------------------|
|-----------------------------------3P--|
|-5p3p0-3-5-3-0-0-0--5p3p0-3-5-3-0------|

|--------------------------------------|
|--------------------------------------|
|--------------------------------------|
|--------------------------------------|
|-----------------------------------3--|
|--5p3p0-3-5-3-0-0-0--5p3p0-3-5-3-0----|

|--------------------------------------|
|--------------------------------------|
|--------------------------------------|
|--------------------------------------|
|----------------------------------3P--|
|-5p3p0-3-5-3-0-0-0--5p3p0-3-5-3-0-----|

|-----------------------------------------------------------------|
|-----------------------------------------------------------------|
|-----------------------------------------------------------------|
|-0----0----0------0----5-5--------3----3----3----/6p5p3----------|
|-0----0----0------0----3-3--------0----0----0-----------5-3------|
|-0----0----0------0---------------0----0----0--------------6p5p3-|

|-------------------------------------------------------------|
|-------------------------------------------------------------|
|-------------------------------------------------------------|
|-0-----0----0----------0----5-5------------/6p5p3------------|
|-0-----0----0----------0----3-3-------------------5-3--------|
|-0-----0----0----------0------------------------------6p5p3--|

|---------------------------------------------|
|---------------------------------------------|
|-7-----5------(5)--(5)-----------------------|
|-7-----5------(5)--(5)------/6p5p3-----------|
|-5-----3------(3)--(3)-------------5-3-------|
|---------------------------------------6p5p3-|

|---------------------------------------------|
|---------------------------------------------|
|-10-----7------(7)--(7)----------------------|
|-10-----7------(7)--(7)-----/6p5p3-----------|
|--8-----5------(5)--(5)------------5-3-------|
|---------------------------------------6p5p3-|

|--------------------------------------|
|--------------------------------------|
|--------------------------------------|
|--------------------------------------|
|-----------------------------------3--|
|--5p3p0-3-5-3-0-0-0--5p3p0-3-5-3-0----|

|----------------------------------------|
|----------------------------------------|
|----------------------------------------|
|----------------------------------------|
|----------------------------------3P----|
|-5p3p0-3-5-3-0-0-0--5p3p0-3-5-3-0-------|

|--------------------------------------|
|--------------------------------------|
|--------------------------------------|
|--------------------------------------|
|-----------------------------------3--|
|--5p3p0-3-5-3-0-0-0--5p3p0-3-5-3-0----|

|----------------------------------------|
|----------------------------------------|
|----------------------------------------|
|----------------------------------------|
|----------------------------------3P----|
|-5p3p0-3-5-3-0-0-0--5p3p0-3-5-3-0-------|

|--------------------------------------|
|--------------------------------------|
|--------------------------------------|
|--------------------------------------|
|-----------------------------------3--|
|--5p3p0-3-5-3-0-0-0--5p3p0-3-5-3-0----|

|--------------------------------------|
|--------------------------------------|
|--------------------------------------|
|--------------------------------------|
|----------------------------------3P--|
|-5p3p0-3-5-3-0-0-0--5p3p0-3-5-3-0-----|

Wait

|-------------------------|
|-------------------------|
|-------------------------|
|----/6p5p3---------------|
|-----------5-3-----------|
|---------------6p5p3-----|

Wait

|-------------------------|
|-------------------------|
|-------------------------|
|----/6p5p3---------------|
|-----------5-3-----------|
|---------------6p5p3-----|


Solo


|-13pb15r(13)-(13)p15(13)-12-10-8-12-10-8--------------------------------|
|-------------------------------------------13-11-10-13-11-10------------|
|-------------------------------------------------------------14-12-10---|
|----------------------------------------------------------------------14|
|------------------------------------------------------------------------|
|------------------------------------------------------------------------|

|----------------------------------12-------12-13-15-13-12-13p12---|
|-10h11-10-11-13-10-11-13-15p13-15----13-15------------------------|
|------------------------------------------------------------------|
|------------------------------------------------------------------|
|------------------------------------------------------------------|
|------------------------------------------------------------------|

|-------------------10---------------10-------------10-------10------------|
|-13p10h13p10h13p10----10-13b15(13)----13-10----------13-10----13-10-------|
|---------------------------------------------12b14-------------------12-14|
|--------------------------------------------------------------------------|
|--------------------------------------------------------------------------|
|--------------------------------------------------------------------------|

|-10-------10-----------------------10-13-15p13-15p13p10-13p10-|
|----13p10----13p10-15-15-15-(15)------------------------------|
|--------------------------------------------------------------|
|--------------------------------------------------------------|
|--------------------------------------------------------------|
|--------------------------------------------------------------|

|----10-13-12h13p-12-10h12p-10----10------10h12p10-10-10--------------|
|-13---------------------------13------13----------------13b15-(13)---|
|---------------------------------------------------------------------|
|---------------------------------------------------------------------|
|---------------------------------------------------------------------|
|---------------------------------------------------------------------|

|-------10-------------10-------------10----------------------------------|
|-(13)-----13p10----------13p10----------13p10-12b13-(12)----(12)----13---|
|----------------12b14----------12b14----------12b13-(12)-----------------|
|-------------------------------------------------------------------------|
|-------------------------------------------------------------------------|
|-------------------------------------------------------------------------|

|--------------------------------------------------------------------------|
|--------------------------------------------------------------------------|
|-(16)--12pb14-(12)-10-17b19----(17)-----(17)----12pb14--(12)---10-16b17---|
|--------------------------------------------------------------------------|
|--------------------------------------------------------------------------|
|--------------------------------------------------------------------------|

|--------------------------------------|
|--------------------------------------|
|10-17b19(17)r-12pb14-(12)---10-16b17--|
|--------------------------------------|
|--------------------------------------|
|--------------------------------------|

|--------------------------------------------------------------------------|
|--------------------------------------------------------------------------|
|-(16)-12pb14(12)-10---17b19(17)-12pb14-(12)-10-16b17(16)-12pb14(12)-------|
|--------------------------------------------------------------------------|
|--------------------------------------------------------------------------|
|--------------------------------------------------------------------------|

|-------------------------|
|-------------------------|
|-10-16b17(16)r-12b14(12)-|
|-------------------------|
|-------------------------|
|-------------------------|

|-------15p13\-3/-15p13-15p13--15p13-15-12h13h15-12h13h15-13p10-10h13p10---|
|------------------------------------------------------------------------13|
|-(12)---------------------------------------------------------------------|
|--------------------------------------------------------------------------|
|--------------------------------------------------------------------------|
|--------------------------------------------------------------------------|

|-10----------------------------------------------------|
|----10h13p--10----10-------------------12b13--(12)-----|
|---------------12----12h13-10----------12b13--(12)-----|
|------------------------------12-(12)\-----------------|
|-------------------------------------------------------|
|-------------------------------------------------------|

|--------------------------------------|
|--------------------------------------|
|--------------------------------------|
|--------------------------------------|
|-----------------------------------3--|
|--5p3p0-3-5-3-0-0-0--5p3p0-3-5-3-0----|

|----------------------------------------|
|----------------------------------------|
|----------------------------------------|
|----------------------------------------|
|----------------------------------3P----|
|-5p3p0-3-5-3-0-0-0--5p3p0-3-5-3-0-------|

|--------------------------------------|
|--------------------------------------|
|--------------------------------------|
|--------------------------------------|
|-----------------------------------3--|
|--5p3p0-3-5-3-0-0-0--5p3p0-3-5-3-0----|

|---------------------------------------|
|---------------------------------------|
|---------------------------------------|
|---------------------------------------|
|----------------------------------3P---|
|-5p3p0-3-5-3-0-0-0--5p3p0-3-5-3-0------|

|--------------------------------------|
|--------------------------------------|
|--------------------------------------|
|--------------------------------------|
|-----------------------------------3--|
|--5p3p0-3-5-3-0-0-0--5p3p0-3-5-3-0----|

|----------------------------------------|
|----------------------------------------|
|----------------------------------------|
|----------------------------------------|
|----------------------------------3P----|
|-5p3p0-3-5-3-0-0-0--5p3p0-3-5-3-0-------|

|--------------------------------------|
|--------------------------------------|
|--------------------------------------|
|--------------------------------------|
|-----------------------------------3--|
|--5p3p0-3-5-3-0-0-0--5p3p0-3-5-3-0----|

|--------------------------------------|
|--------------------------------------|
|--------------------------------------|
|--------------------------------------|
|----------------------------------3P--|
|-5p3p0-3-5-3-0-0-0--5p3p0-3-5-3-0-----|

Have Fun!


--Legend--
/ - Slide Right
\ - Slide Left
p - Pull-Off
h - Hammer-On
pb - Pre-Bend
b - Bend
P - Pinch Harmonic
A Number Inbeetween () - Do It If You Want To





Comments


Popular Ozzy Osbourne tabs & chords
11 Silver Bass Tabs
Back On Earth Bass Tabs
Believer 2 Bass Tabs
No More Tears Bass Tabs
Paraniod Live Bass Tabs
Children Of The Grave Tabs
Facing Hell 2 Tabs
Miracle Man Tabs
My Little Man Tabs
No Easy Way Out 1 Tabs


Song lyrics



↑ Back to top | Tablatures and chords are parodies/interpretations of the original songs. You may use it for private study, scholarship, research or language learning purposes only
© 2014 AZChords.com Contact us | Privacy policy | DMCA | Add/correct tabs | Request tabs | Top 50 tabs