>
 >
I Dont Wanna Stop

I Dont Wanna Stop Guitar Tabs

Ozzy Osbourne - I Dont Wanna Stop chords, tabs, tablatures, lyrics

Guitar lessons | Add/correct | Request | Top 50 tabs Artists:  A B C D E F G H I J K L M N O P Q R S T U V W X Y Z 0-9

I Dont Wanna Stop Guitar Tabs – Ozzy Osbourne

CD, Sheet music, Poster

Do you like I Dont Wanna Stop? Share with your friends now
Bass TabsTabsTabs v2Tabs v3
----------------------------------------------------------------------------
                          I Don't Wanna Stop - Ozzy Osbourne
----------------------------------------------------------------------------





 

Guitar I (C G C F A D) - 'Zakk (Rhy.)'
Guitar II (C G C F A D) - 'Rhy II (Dubover)'
Guitar III (C G C F A D) - 'Pick Slides '
Guitar IV (C G C F A D) - 'Synth'


 Intro
  Gtr I
      
  
|--------------------|-------------|-----------------|---------------|
|--------------------|-------------|-----------------|---------------|
|--------------------|-------------|-----------------|---------------|
|--------------------|-------------|-----------------|---------------|
|-3-(3)s5------------|--(5)--------|--(5)------------|--(5)----------|
|--------------------|-------------|-----------------|---------------|
|
|
| Gtr II
|          
|-----------22-------|-(22)--------|-(22)--(22)------|-(22)--(22)----|
|-----------19-------|-(19)--------|-(19)--(22)------|-(22)--(22)----|
|--------------------|-------------|-----------------|-------(19)----|
|--------------------|-------------|-------(19)------|-(19)--(19)----|
|--------------------|-------------|-----------------|---------------|
|--------------------|-------------|-----------------|---------------|


           
                          PM---------------------------------------------|

|------------|--------||--------------------------|------------------------|
|------------|--------||--------------------------|------------------------|
|------------|--------||--------------------------|------------------------|
|------------|--------||--------------------------|------------------------|
|--(5)-------|--(5)---||--0--0-0-0-0---0--0-0-0-0-|---0--0-0-0-0-0-0-0-0-0-|
|------------|--------||--0--0-0-0-0---0--0-0-0-0-|---0--0-0-0-0-0-0-0-0-0-|
|
|   
|  
|-(22)--------|-(22)----||-(22)---------(22)---------|-(22)----------------|
|-(22)--------|-(23)----||-(23)---------(22)---------|-(22)----------------|
|-(19)--------|-(19)----||-(19)---------(19)---------|-(19)----------------|
|-(19)--------|--(0)----||--(0)----------(0)---------|--(0)----------------|
|-------------|---------||---------------------------|---------------------|
|-------------|---------||---------------------------|---------------------|


    PM---------------------------------------------
    
|------------------------|------------------------|
|------------------------|------------------------|
|------------------------|------------------------|
|------------------------|------------------------|
|---0--0-0-0-0-0-0-0-0-0-|---0--0-0-0-0-0-0-0-0-0-|
|---0--0-0-0-0-0-0-0-0-0-|---0--0-0-0-0-0-0-0-0-0-|
|
|   
|  
|-(22)-------------------|-(22)-------------------|
|-(22)-------------------|-(22)-------------------|
|-(19)-------------------|-(19)-------------------|
|--(0)-------------------|--(0)-------------------|
|------------------------|------------------------|
|------------------------|------------------------|


   
 ------------------------------------------------|
    
||-------------------------|-----------------------|
||o------------------------|-----------------------|
||-------------------------|-----------------------|
||-------------------------|-----------------------|
||o-0--0-0-0-0-0-0-0-0--0--|--0--0-0-0-0-0-0-0-0-0-|
||--0--0-0-0-0-0-0-0-0--0--|--0--0-0-0-0-0-0-0-0-0-|
|
|   
||-------------------------|-----------------------|
||o------------------------|-----------------------|
||--7--------5---------(5)-|-(5)-------------------|
||--7--------5---------(5)-|-(5)-------------------|
||o-5--------3---------(3)-|-(3)-------------------|
||-------------------------|-----------------------|


                                                    
  
    PM--------------------------------------------------
   
|--------------------------|------------------------||-|
|--------------------------|-----------------------o||-|
|--------------------------|------------------------||-|
|--------------------------|------------------------||-|
|---0--0-0-0-0-0-0-0-0--0--|--0--0-0-0-0-0-0-0-0-0-o||-|
|---0--0-0-0-0-0-0-0-0--0--|--0--0-0-0-0-0-0-0-0-0--||-|
|
|  
|--------------------------|------------------------||-|
|--------------------------|-----------------------o||-|
|-/10--------7---------(7)-|-(7)--------------------||-|
|-/10--------7---------(7)-|-(7)--------------------||-|
|--/8--------5---------(5)-|-(5)-------------------o||-|
|--------------------------|------------------------||-|
|
| Gtr III
|                            
|--------------------------|------------------------||-|
|--------------------------|-----------------------o||-|
|--------------------------|------------------------||-|
|--------------------------|------------------------||-|
|--------------------------|-----------------------o||-|
|--------------------------|------------------------||-|


  
 --------------------------------------------------------|
   
|-------------------------|--------------------------------------||
|-------------------------|--------------------------------------||
|-------------------------|--------------------------------------||
|-------------------------|--------------------------------------||
|--0--0-0-0-0-0-0-0-0--0--|--0---0---0-0-0---0---0---0-0-0-------||
|--0--0-0-0-0-0-0-0-0--0--|--0---0---0-0-0---0---0---0-0-0-------||
|
|  
|-------------------------|--------------------------------------||
|-------------------------|--------------------------------------||
|-10--------7---------(7)-|-(7)----------------------------------||
|-10--------7---------(7)-|-(7)----------------------------------||
|--8--------5---------(5)-|-(5)----------------------------------||
|-------------------------|--------------------------------------||
|
|                            TPTPTPTPTPTPTPTPTPTPTPTPTPTPTPTP
|                           
|-------------------------|--------------------------------------||
|-------------------------|--------------------------------------||
|-------------------------|--------------------------------------||
|-------------------------|--------------------------------------||
|-------------------------|------------xsxsxsxsxsxsx\------------||
|-------------------------|-/xsxsxsxsxsxsxsxsxsxsxsxsxsxsxsx\----||


   Chorus Theme
   
                  PM|                    
||--------------------|------------------|
||o-------------------|------------------|
||--------------------|------------------|
||--------------------|------------------|
||o-------------------|---------------3--|
||--5p3p0-3-5-3-0-0-0-|-5p3p0-3-5-3-0----|


                PM|                  
|-------------------|---------------------||
|-------------------|--------------------o||
|-------------------|---------------------||
|-------------------|---------------------||
|-------------------|---------------[3]--o||
|-5p3p0-3-5-3-0-0-0-|-5p3p0-3-5-3-0-------||


 Pre-Verse
|---------------|------------------|---------------|--------------------||
|---------------|------------------|---------------|--------------------||
|---------------|------------------|---------------|--------------------||
|-0----0----0---|---0----5-5-5--3--|-3----3----3---|---/6p5p3-----------||
|-0----0----0---|---0----3-3-3-(3)-|-0----0----0---|----------5-3-------||
|-0----0----0---|---0--------------|-0----0----0---|--------------6p5p3-||


   Verse

||----------------|------------------|---------------|--------------------||
||o---------------|------------------|---------------|-------------------o||
||----------------|------------------|---------------|--------------------||
||--0----0----0---|---0----5-5-5--3--|-3----3----3---|---/6p5p3-----------||
||o-0----0----0---|---0----3-3-3-(3)-|-0----0----0---|----------5-3------o||
||--0----0----0---|---0--------------|-0----0----0---|--------------6p5p3-||


  
|------------------|------------------------|
|------------------|------------------------|
|------------------|------------------------|
|-0-----0----0-----|-----0----5-5-5------3--|
|-0-----0----0-----|-----0----3-3-3-----(3)-|
|-0-----0----0-----|-----0------------------|
|
| Gtr II
|
|------------------|------------------------|
|------------------|------------------------|
|-7-----5------(5)-|-(5)----------5-(5)s10--|
|-7-----5------(5)-|-(5)----------5-(5)s10--|
|-5-----3------(3)-|-(3)----------3-(3)s=8--|
|------------------|------------------------|


     
|-------------------|-----------------------|
|-------------------|-----------------------|
|-------------------|-----------------------|
|--3-----3----3-----|-----/6p5p3------------|
|--0-----0----0-----|------------5-3--------|
|--0-----0----0-----|----------------6p5p3--|
|
| 
|-------------------|-----------------------|
|-------------------|-----------------------|
|-10-----7------(7)-|-(7)-------------------|
|-10-----7------(7)-|-(7)-------------------|
|--8-----5------(5)-|-(5)-------------------|
|-------------------|-----------------------|


  
|------------------|--------------------|
|------------------|--------------------|
|------------------|--------------------|
|-0-----0----0-----|-----0----5-5-5--3--|
|-0-----0----0-----|-----0----3-3-3-(3)-|
|-0-----0----0-----|-----0--------------|
|
| 
|------------------|--------------------|
|------------------|--------------------|
|-7-----5------(5)-|-(5)----------------|
|-7-----5------(5)-|-(5)----------------|
|-5-----3------(3)-|-(3)----------------|
|------------------|--------------------|


  
|-----------------------|-------------------------------||
|-----------------------|-------------------------------||
|-----------------------|-------------------------------||
|--3---------3----3-----|-----/6p=5p=3------------------||
|--0---------0----0-----|---------------5--3------------||
|--0---------0----0-----|---------------------6p=5p3p0--||
|
|                               
|  
|-----------------------|-------------------------------||
|-----------------------|-------------------------------||
|-10---(10)\-7------(7)-|-(7)---------------------------||
|-10---(10)\-7------(7)-|-(7)---------------------------||
|--8----(8)\-5------(5)-|-(5)----[3]---[3]---[3]--------||
|-----------------------|-------------------------------||


   Chorus
   
                  PM|                 
||--------------------|------------------|
||o-------------------|------------------|
||--------------------|------------------|
||--------------------|------------------|
||o-------------------|---------------3--|
||--5p3p0-3-5-3-0-0-0-|-5p3p0-3-5-3-0----|


                                 
                PM|                  
|-------------------|---------------------||
|-------------------|--------------------o||
|-------------------|---------------------||
|-------------------|---------------------||
|-------------------|---------------[3]--o||
|-5p3p0-3-5-3-0-0-0-|-5p3p0-3-5-3-0-------||


 2nd Pre-Verse
|-----------------|------------------------|
|-----------------|------------------------|
|-----------------|------------------------|
|-----------------|------------------------|
|-----------------|------------------------|
|-3---3-3---5---6-|---3----3---5-(5)b6r(5)-|
|
| Gtr II
| 
|-----------------|------------------------|
|-----------------|------------------------|
|-----------------|------------------------|
|-0-----0-----0---|---0--------------------|
|-0-----0-----0---|---0--------------------|
|-0-----0-----0---|---0--------------------|


 
|-----------------|---------------------||
|-----------------|---------------------||
|-----------------|---------------------||
|-----------------|---------------------||
|-----------------|---------5-3---------||
|-3---3-3---5---6-|---6-5-3-----6p5p3---||
|
|
|-----------------|---------------------||
|-----------------|---------------------||
|-----------------|---------------------||
|-0-----0-----0---|---------------------||
|-0-----0-----0---|---------------------||
|-0-----0-----0---|---------------------||


   2nd Chorus (continued)
   
                   PM|                  
     
||---------------------|-------------------|
||o--------------------|-------------------|
||---------------------|-------------------|
||---------------------|-------------------|
||o--------------------|----------------3--|
||---5p3p0-3-5-3-0-0-0-|--5p3p0-3-5-3-0----|
|
|                      
|    
|                       
||---------------------|-------------------|
||o-10-----------------|--9----------------|
||---------------------|-------------------|
||---------------------|-------------------|
||o--------------------|-------------------|
||---------------------|-------------------|
|
|   Gtr IV
|                       
||--22-----------------|-21----------------|
||o--------------------|-------------------|
||--19-----------------|-18----------------|
||---------------------|-------------------|
||o--------------------|-------------------|
||---------------------|-------------------|


                        PM|                     
|---------------------------|------------------------||
|---------------------------|-----------------------o||
|---------------------------|------------------------||
|---------------------------|------------------------||
|---------------------------|----------------[3]----o||
|--5p3p0-3-5--3--0------0-0-|--5p3p0-3-5-3-0---------||
|
|  
|
|  
|---------------------------|------------------------||
|--8---------(8)---(8)s10---|-\3--------------------o||
|---------------------------|------------------------||
|---------------------------|------------------------||
|---------------------------|-----------------------o||
|---------------------------|------------------------||
|
|                            
|-20------------------------|------------------------||
|---------------------------|-----------------------o||
|-17------------------------|------------------------||
|---------------------------|-18---------------------||
|---------------------------|-----------------------o||
|---------------------------|-18---------------------||


   Interlude
    
     PM------------------------------------------    
||-----------------------|----------------------|
||o----------------------|----------------------|
||-----------------------|----------------------|
||-----------------------|----------------------|
||o--0-0-0-0-0-0-0-0-0-0-|--0-0-0-0-0-0-0-0-0-0-|
||---0-0-0-0-0-0-0-0-0-0-|--0-0-0-0-0-0-0-0-0-0-|
|
|    PM------------------------------------------
|    
||-----------------------|----------------------|
||o----------------------|----------------------|
||-----------------------|----------------------|
||-----------------------|----------------------|
||o----------------------|----------------------|
||---0-0-0-0-0-0-0-0-0-0-|--0-0-0-0-0-0-0-0-0-0-|
|
|                        
||--22-------------------|-21-------------------|
||o----------------------|----------------------|
||--19-------------------|-18-------------------|
||-----------------------|----------------------|
||o----------------------|----------------------|
||-----------------------|----------------------|


                            
 --------------------|                       
  
|----------------------|--------------------------||
|----------------------|-------------------------o||
|----------------------|--------------------------||
|----------------------|----/6p5p==3--------------||
|--0-0-0-0-0-0-0-0-0-0-|-------------5-3---------o||
|--0-0-0-0-0-0-0-0-0-0-|-----------------6p5p3----||
|
|--------------------------------------------|
|  
|----------------------|--------------------------||
|----------------------|-------------------------o||
|----------------------|--------------------------||
|----------------------|--------------------------||
|----------------------|-------------------------o||
|--0-0-0-0-0-0-0-0-0-0-|--0--0-0-0-0-0-0-0-0-0----||
|
|                       
|-20-------------------|--------------------------||
|----------------------|-------------------------o||
|-17-------------------|--------------------------||
|----------------------|-18-----------------------||
|----------------------|-------------------------o||
|----------------------|-18-----------------------||


    
     PM----------------------------------------|  
||-----------------------|----------------------|
||o----------------------|----------------------|
||-----------------------|----------------------|
||-----------------------|----------------------|
||o--0-0-0-0-0-0-0-0-0-0-|--0-0-0-0-0-0-0-0-0-0-|
||---0-0-0-0-0-0-0-0-0-0-|--0-0-0-0-0-0-0-0-0-0-|
|
|    
|
|
||--17-------------------|-21-------------------|
||o----------------------|----------------------|
||--14-------------------|-18-------------------|
||-----------------------|----------------------|
||o----------------------|----------------------|
||-----------------------|----------------------|
|
|    
||--22-------------------|-21-------------------|
||o----------------------|----------------------|
||--19-------------------|-18-------------------|
||-----------------------|----------------------|
||o----------------------|----------------------|
||-----------------------|----------------------|


                           
  -------------------|
   
|----------------------|--------------------------||
|----------------------|-------------------------o||
|----------------------|--------------------------||
|----------------------|-----/6p5p3---------------||
|--0-0-0-0-0-0-0-0-0-0-|--------------5--3-------o||
|--0-0-0-0-0-0-0-0-0-0-|-------------------6p5p3--||
|
|
|
|-20-------------------|--16---------20-----------||
|----------------------|-------------------------o||
|----------------------|--------------------------||
|-17-------------------|-\12--------(12)----------||
|----------------------|-------------------------o||
|----------------------|--------------------------||
|
|  
|-20-------------------|--------------------------||
|----------------------|-------------------------o||
|-17-------------------|--------------------------||
|----------------------|--18----------------------||
|----------------------|-------------------------o||
|----------------------|--18----------------------||


 Guitar Solo:


|-13pb15r(13)-(13)pb15r(13)-12-10-8-12-10-8--------------------------------|
|-------------------------------------------13-11-10-13-11-10--------------|
|-------------------------------------------------------------14-12-10-----|
|----------------------------------------------------------------------14--|
|--------------------------------------------------------------------------|
|--------------------------------------------------------------------------|
(Continued)
|-------|
|-------|
|10h12--|
|-------|
|-------|
|-------|


|
|               PM----------|                PM------|           PM-------
|--------------------------------------------------------------------------|
|--------------------------------------------------------------------------|
|--------------------------------------------------------------------------|
|--------------------------------------------------------------------------|
|--0---------------------------------0-------------------------0-----------|
|--0------------0------------0-------0-------0--------0--------0--------0--|


          
                                       T  T
|----------------------------------12-------12-13-15-13-12-13p12---|
|-10h11-10-11-13-10-11-13-15p13-15----13-15------------------------|
|------------------------------------------------------------------|
|------------------------------------------------------------------|
|------------------------------------------------------------------|
|------------------------------------------------------------------|
|
|                PM------|
|------------------------------------------------------------------|
|------------------------------------------------------------------|
|------------------------------------------------------------------|
|------------------------------------------------------------------|
|--------0--------------------------3--------3-----3--------3------|
|--0-----0--------0--------0---------------------------------------|



|-13\--------------------------|-----------------------------------|
|---------13-(13)b15==(13)-----|-(13)r--------------------(13)\-10-|
|------------------------------|-----------------------------------|
|-----0-0----------------------|-----------------------------------|
|------------------------------|-----------------------------------|
|------------------------------|-----------------------------------|
|
|     PM|      PM-----|      PM--|                          
|------------------------------|-----------------------------------|
|------------------------------|-----------------------------------|
|------------------------------|-----------------------------------|
|------------------------------|-------/6p5p3----------------------|
|--0-------0---------------0---|--------------5-3------------------|
|--0--0-0--0---0--------0--0-0-|---0--------------5b6r(5)---3------|


  
   
                                            T  T                      T  T
|-------------------10---------------10-------------10-------10------------|
|-13p10h13p10h13p10----10-13b15(13)r----13-10----------13-10----13-10------|
|---------------------------------------------12b14-------------------12b14|
|--------------------------------------------------------------------------|
|--------------------------------------------------------------------------|
|--------------------------------------------------------------------------|
|
|           PM------|              PM--|                        PM
|--------------------------------------------------------------------------|
|--------------------------------------------------------------------------|
|--------------------------------------------------------------------------|
|--------------------------------------------------------------------------|
|--0-----------------------0---------------------------0-------------------|
|--0--------0--------0-----0-------0----0--------------0--------0----------|


         
                                                 T  T      
|-10-------10-----------------------10-13-15p13-15p13p10-13p10-|
|----13p10----13p10-15-15-15-(15)------------------------------|
|--------------------------------------------------------------|
|--------------------------------------------------------------|
|--------------------------------------------------------------|
|--------------------------------------------------------------|
|
|  PM                PM------|
|--------------------------------------------------------------|
|--------------------------------------------------------------|
|--------------------------------------------------------------|
|--------------------------------------------------------------|
|-----------0------------------------3-----3-----3--------3----|
|--0--------0--------0---------0-------------------------------|


 
                                                           
            
                                  T       T  T  T  T     T  
|----10-13-12h13p==12-10h12p==10----10------10h12p10-10-10--------------|
|-13-----------------------------13------13----------------13b15==(13)r-|
|-----------------------------------------------------------------------|
|-----------------------------------------------------------------------|
|-----------------------------------------------------------------------|
|-----------------------------------------------------------------------|
|
|        PM------|                     PM---------|                 PM
|-----------------------------------------------------------------------|
|-----------------------------------------------------------------------|
|-----------------------------------------------------------------------|
|-----------------------------------------------------------------------|
|--0------------------------0-------------------------------0-----------|
|--0-----0-------0----------0----------0-----------0--------0-------0---|



|-------10-------------10-------------10----------------------------------|
|-(13)r----13p10----------13p10----------13p10-12b13==(12)----(12)----13--|
|----------------12b14----------12b14----------12b13==(12)----------------|
|-------------------------------------------------------------------------|
|-------------------------------------------------------------------------|
|-------------------------------------------------------------------------|
(Continued)
|---------------------------------------------|
|---------------------------------------------|
|-(12)r---------12b14r(12)---10-16b17==(16)---|
|---------------------------------------------|
|---------------------------------------------|
|---------------------------------------------|




|---------------------------------------------------------|
|---------------------------------------------------------|
|---------------------------------------------------------|
|----------/6p====5p=======3------------------------------|
|--------------------------------5--------3---------------|
|---0-------------------------------------------5b6r(5)-3-|
(Continued)
|---------------------------------------------|
|---------------------------------------------|
|---------------------------------------------|
|---------------------------------------------|
|---0------------0-----------------------0----|
|---0---0-----0--0---------0-----0-------0--0-|

   
|--------------------------------------------------------------------------|
|--------------------------------------------------------------------------|
|-(16)r-12pb14r(12)-10-17b19----(17)-----(17)r---12pb14r(12)---10-16b17---|
|--------------------------------------------------------------------------|
|--------------------------------------------------------------------------|
|--------------------------------------------------------------------------|
|
|                    PM-------|
|   
|--------------------------------------------------------------------------|
|--------------------------------------------------------------------------|
|--------------------------------------------------------------------------|
|--------------------------------------------------------------------------|
|--------0---------------------------3-3-------3-------------3-------------|
|---0----0-----------0--------0--------------------------------------------|



|--------------------------------------------------------------------------|
|--------------------------------------------------------------------------|
|-(16)r-12pb14r(12)---10-17b19(17)r-12pb14r(12)--10-16b17(16)r-12pb14r(12)-|
|--------------------------------------------------------------------------|
|--------------------------------------------------------------------------|
|--------------------------------------------------------------------------|
(Continued)
|--------------------------------------|
|--------------------------------------|
|10-17b19(17)r-12pb14r(12)---10-16b17--|
|--------------------------------------|
|--------------------------------------|
|--------------------------------------|


        PM----------|                      PM------|          PM-------
|--------------------------------------------------------------------------|
|--------------------------------------------------------------------------|
|--------------------------------------------------------------------------|
|--------------------------------------------------------------------------|
|---0---------------------------0-----------------------------0------------|
|---0----0-----------0----------0-----------0--------0--------0--------0---|



         
|--------------------------------------------------------------------------|
|--------------------------------------------------------------------------|
|-(16)r-12pb14r(12)-10---17b19(17)r-12pb14r(12)-10-16b17(16)r-12pb14r(12)--|
|--------------------------------------------------------------------------|
|--------------------------------------------------------------------------|
|--------------------------------------------------------------------------|
(Continued)
|-------------------------|
|-------------------------|
|-10-16b17(16)r-12b14(12)-|
|-------------------------|
|-------------------------|
|-------------------------|
     

                                                                 
|--------------------------------------------------------------------|
|--------------------------------------------------------------------|
|--------------------------------------------------------------------|
|----------------/6p5p3----------------------------------------------|
|------------------------------5------3------------------------------|
|---0------------------------------------------------------5b6r(5)-3-|


         T        T     T      T        T        T
|-------15p13\-3/-15p13-15p13--15p13-15-12h13h15-12h13h15-13p10-10h13p10---|
|------------------------------------------------------------------------13|
|-(12)r--------------------------------------------------------------------|
|--------------------------------------------------------------------------|
|--------------------------------------------------------------------------|
|--------------------------------------------------------------------------|
|
|        PM----------|                      PM------|          PM-------
|
|--------------------------------------------------------------------------|
|--------------------------------------------------------------------------|
|--------------------------------------------------------------------------|
|--------------------------------------------------------------------------|
|---0---------------------------0-----------------------------0------------|
|---0----0-----------0----------0-----------0--------0--------0--------0---|


                               
                                         
     
|-10----------------------------------------------------|
|----10h13p==10----10-------------------12b13==(12)-----|
|---------------12----12h13-10----------12b13==(12)-----|
|------------------------------12-(12)\-----------------|
|-------------------------------------------------------|
|-------------------------------------------------------|
|
|-|                 PM---|
|  
|-------------------------------------------------------|
|-------------------------------------------------------|
|-------------------------------------------------------|
|-------------------------------------------------------|
|----------0--------------------3---3----3----------3---|
|--0-------0--------0-----0-----------------------------|



|-------------------------18b19==(18)-|
|-(12)--------(12)-(12)\-(18)----(18)-|
|-(12)r-------(12)-(12)\--------------|
|-------------------------------------|
|-------------------------------------|
|-------------------------------------|
|
|       PM|     PM-|               PM--
| 
|-------------------------------------|
|-------------------------------------|
|-------------------------------------|
|-------------------------------------|
|---0-------0--------------0----------|
|---0---0-0-0---0----0-----0-------0--|


   

|-(18)r-----------------------------------||
|-(18)---------16b18==(16)r---------(16)\-||
|-----------------------------------------||
|-----------------------------------------||
|-----------------------------------------||
|-----------------------------------------||
|
|-|                                  
|  
|-----------------------------------------||
|-----------------------------------------||
|-----------------------------------------||
|-------/6p5p3----------------------------||
|---------------5-------3-----------------||
|---0-----------------------5b6r(5)---3---||


   Out-Chorus:
                  PM|                 
||--------------------|------------------|
||o-------------------|------------------|
||--------------------|------------------|
||--------------------|------------------|
||o-------------------|---------------3--|
||--5p3p0-3-5-3-0-0-0-|-5p3p0-3-5-3-0----|


                PM|                  
|-------------------|---------------------||
|-------------------|--------------------o||
|-------------------|---------------------||
|-------------------|---------------------||
|-------------------|---------------[3]--o||
|-5p3p0-3-5-3-0-0-0-|-5p3p0-3-5-3-0-------||


   
                   PM|                  
||---------------------|-------------------|
||o--------------------|-------------------|
||---------------------|-------------------|
||---------------------|-------------------|
||o--------------------|----------------3--|
||---5p3p0-3-5-3-0-0-0-|--5p3p0-3-5-3-0----|
|
|
|
|   Gtr II      
||---------------------|-------------------|
||o-10-----------------|--9----------------|
||---------------------|-------------------|
||---------------------|-------------------|
||o--------------------|-------------------|
||---------------------|-------------------|
|
|   Gtr IV
|    
||--22-----------------|-21----------------|
||o--------------------|-------------------|
||--19-----------------|-18----------------|
||---------------------|-------------------|
||o--------------------|-------------------|
||---------------------|-------------------|


                      1.                      2.
                 PM|                   
|--------------------|----------------------||------*|
|--------------------|---------------------o||------*|
|--------------------|----------------------||------*|
|--------------------|----------------------||------*|
|--------------------|----------------[3]--o||------*|
|--5p3p0-3-5-3-0-0-0-|--5p3p0-3-5-3-0-------||------*|
|
|  
|
|  
|--------------------|----------------------||------*|
|--8-----------------|-\3------------------o||------*|
|--------------------|----------------------||------*|
|--------------------|----------------------||------*|
|--------------------|---------------------o||------*|
|--------------------|----------------------||------*|
|
| 
|-20-----------------|----------------------||------*|
|--------------------|---------------------o||------*|
|-17-----------------|----------------------||------*|
|--------------------|-18-------------------||------*|
|--------------------|---------------------o||------*|
|--------------------|-18-------------------||------*|




Tablature Legend
----------------
 h   - hammer-on
 p   - pull-off
 b   - bend
 pb  - pre-bend
 r   - bend release (if no number after the r, then release immediately)
 /\  - slide into or out of (from/to "nowhere")
 s   - legato slide
 S   - shift slide
 - natural harmonic
[n]  - artificial harmonic
~    vibrato/let ring
tr   trill
T    tap
TP   trem. picking
PM   palm muting
=    hold bend; also acts as connecting device for hammers/pulls
x    mute
|    bar
||   double bar
||o  repeat start
o||  repeat end





Comments


Popular Ozzy Osbourne tabs & chords
Gets Me Through Bass Tabs
No More Tears 2 Bass Tabs
Bark At The Moon 3 Tabs
Bloodbath In Paradise Tabs
Dee Tabs
Diggin Me Down Tabs
Fire In The Sky 1 Tabs
Flying High Again 3 Tabs
Junkie 1 Tabs
Mama Im Coming Home 4 Tabs


Song lyrics



↑ Back to top | Tablatures and chords are parodies/interpretations of the original songs. You may use it for private study, scholarship, research or language learning purposes only
© 2014 AZChords.com Contact us | Privacy policy | DMCA | Add/correct tabs | Request tabs | Top 50 tabs