» » »

Here For You Tabs (ver.1)

Artists:  A B C D E F G H I J K L M N O P Q R S T U V W X Y Z # 

Here For You Tabs (ver.1)

Ozzy Osbourne
Rating:
0/5 (0 votes)

Tabs too difficult? Try these video lessons and learn fast.
                -------------------------------------------------------------------------------
                             Here for You - ozzy Osbourne
-------------------------------------------------------------------------------

Tuning: Standard

e|-------------------------------------12\-----------------------------------|
B|-12b---12b-12b-12-12b-12b-12bp10-----12\-----------------------------------|
G|---------------------------------11~---------------------------------------|
D|---------------------------------------------------------------------------|
A|---------------------------------------------------------------------------|
E|---------------------------------------------------------------------------|

e|-------------------12-----------------12b-12p10-9-------12b----------------|
B|-12b---12b-12b-12------12b-12bp10-----------------12p10--------------------|
G|---------------------------------11~---------------------------------------|
D|---------------------------------------------------------------------------|
A|---------------------------------------------------------------------------|
E|---------------------------------------------------------------------------|



| /  slide up
| \  slide down
| h  hammer-on
| p  pull-off
| ~  vibrato
| +  harmonic
| x  Mute note
===============================================================================
            
Tabs too difficult? Try these video lessons and learn fast.




comments powered by Disqus
↑ Back to top | Tablatures and chords are parodies/interpretations of the original songs. You may use it for private study, scholarship, research or language learning purposes only